» » »

Mana, Cuando Los Angeles Lloran Tabs (ver.2)

Artists:  A B C D E F G H I J K L M N O P Q R S T U V W X Y Z # 

Cuando Los Angeles Lloran Tabs (ver.2)

Mana Tabs
 Rating:
4/5 (7 votes)
Cuando Los Angeles Lloran lessons Tabs too difficult? Try these video lessons and learn fast
1
                Cuando los angeles lloran
Hi guys...i'm here again and i love all songs


Unplugged Mana: Cuando los angeles lloran.

Capo 2
Intro:

e-------------------------I--------------
B--9----------------------I----10-9-7----
G--9----11-13-11-9--------I--9--------9h8
D--9--9------------11-9-7-I-7------------
A--7----------------------I--------------
E-------------------------I--------------

e------------------------I--------------
B-9----------------------I----10-9-----
G-9----11-13-11-9--------I--9------9--8p7h8
D-9--9------------11-9-7-I-7------------
A-7----------------------I--------------
E------------------------I--------------

e---------------------------------
B-9-12-10-9------7----------9-7-5------
G-9---------11-9-8----8-11-6-------8-6--
D-9--------------9--9------7-----
A-7--------------9---------7-------------
E--------------------------------------

e------------------------------------
B------------7-9h10-9-7-------------
G-----6----8-----------9---8p7h8-----
D---7---7--9------------------------
A--7-----7-9------------------------
E-----------------------------------

e---------------------------------
B-9-12-10-9------7----------9-7-5------
G-9---------11-9-8----8-11-6-------8-6--
D-9--------------9--9------7-----
A-7--------------9---------7-------------
E--------------------------------------

e------------------------------------
B------------7-9h10-9-7-------------
G-----6----8-----------9---8p7h8-----
D---7---7--9------------------------
A--7-----7-9------------------------
E-----------------------------------

e------------------------------------
B-----9-10-12--9--9-7------------
G-7-9----------9------9-8---8-9-8
D--------------9-----------9--
A--------------7----------9--
E-----------------------------------

riff 1:
e----------------------
B----------------------
G------4--4--4---------
D----6---7-6---4-6-7-6-


Bm			A
A chico Mendez lo mataron
			G
era un defensor y un angel 
		D
de toda la amazonia

(riff)

Bm		   A
el murio a sangre fria
		      G
lo sabia a color de melo
		D
Y tambien la policia


riff 2:
e-2-----3---2-----3--------
B---3----3----3----3-------
G-----2---2-----2---2

F#m			Bm
Cuando los angeles lloran
			G
lluvia cae sobre la aldea
		D
sobre el campanario
		A
pues alguien murio



Chorus:
	    D
Un angel cayo

e-------------------
B-------5--------5-
G---4-4---4----4---4
D-----------7-----

G	     D
un angel murio
A	     D
un angel se fue
G	D	A
Y no volvera

riff 3:
e:------
B:----/9-9-9-9-9-9--5-5/7-7-7-7-7-4-4/5-
G:--------------------------------------

e:------
B:----5-5-5-5
G:------------6-6-4-4------------------------



Bm		   A
Cuando el asesino huia
		  G
chico Mendez se moria
			D
la selva se ahogaba en llanto

(riff 1)
Bm			A
el dejo dos lindos crios 
		G
una esposa valerosa
		D 
y una selva en agonia

(riff 2)

F#m			Bm
Cuando los angeles lloran
			G 
es por cada arbol que muere
 			D
cada estrella que se apaga
	A 
oh no noo no


Chorus:
	    D
Un angel cayo
riff3:
e-------------------
B-------5--------5-
G---4-4---4----4---4
D-----------7-----

G	     D
un angel murio
A	     D
un angel se fue
G	D	A
Y no volvera

	    D
Un angel cayo

e-------------------
B-------5--------5-
G---4-4---4----4---4
D-----------7-----

G	     D
un angel murio
A	     D
un angel se fue
G			D
se fue volando en madrugada


repeat just a little:
e----------
B-----
G---6-6-9-9
D-----------

riff:
e----------------------------
B---9-9-9-9-9-9-10-10-10-10-9
G---9-9-9-9-9-9-9---9--9--9-9
D----------------------------

solo:
e----------------------------
B-------8-8/9--9h12-13-9-7-5-4
G-5-6-8----------------------

e---------------------------
B---4-4-4-4-5-7-9-5--7-5-5-4-
G---------------------------
D---------------------------

e----------------------------
B----------------------------
G-6-4-9-8--------------------
D---------7-6----------------


e----------------------9--7-9--12
B----------------------10-9-10-9
G----------9-8---6-7-9
D---/6-6-6-----6------

e-11-12-14-12-12-11-11-9---------------
B------------------------12-10-10-9
G-----------------------------------8/9\8/9
D-----------------------------------

e----------------------
B-------------------
G------11-9-8-9-11-9-8---------
D-10-11----------------10/11

Bm			
Cuando los angeles lloran
G			D		A
cuando los angeles lloran--ohhh ee ahh...

(riff 1)

D----9-11-11-9-11--
Bm

aplusos....!!!
            
Submit corrections

comments powered by Disqus
↑ Back to top | Mana Tabs for Cuando Los Angeles Lloran. Lyrics for acoustic guitar and electric guitar. 1 Tablatures and chords are parodies/interpretations of the original songs. You may use it for private study, scholarship, research or language learning purposes only