>
 >
The Majority

The Majority Guitar Tabs

Mammal - The Majority chords, tabs, tablatures, lyrics

Guitar lessons | Add/correct | Request | Top 50 tabs Artists:  A B C D E F G H I J K L M N O P Q R S T U V W X Y Z 0-9

The Majority Guitar Tabs – Mammal

CD, Sheet music, Poster

Do you like The Majority? Share with your friends now
TabsTabs v2Tabs v3
Mammal- The Majority.

NOTE: Please DO NOT follow the note lengths for the CHORUS, you'll just have to improv.,
change it but it's easy to figure out and i rli cba when i got to that part, but
else is fine. I'm not too certain about the chorus' notes either, but when I play it, it 
alright. Change what you want, it's not a hard song. Peace :)

PAY ATTENTION TO THE NOTE LENGTHS FOR THE LITTLE RIFF:
  S  S  S  S Q    S S E   E   E
D||---------------------------------|
A||---------------------------------|
F||----------------------7S--5S--7--|
C||------------------x-x------------|
G||------------------x-x-5S--3S--5--|
C||--3h-5p-3p-0-0----x-x------------|


     PM PM PM PM PM PM
  E  E  S  S  S  S  E   Q.
--------------------------------|
--------------------------------|
--L--------------------10\------|
--------------------------------|
--L--0--0--0--0--0--0---8\------|
-----0--0--0--0--0--0-----------|


  S  S  S  S Q    S S E   E   E
---------------------------------|
---------------------------------|
----------------------7S--5S--7--|
------------------x-x------------|
------------------x-x-5S--3S--5--|
--3h-5p-3p-0-0----x-x------------|


     PM PM PM PM PM PM
  E  E  S  S  S  S  E   Q.
--------------------------------|
--------------------------------|
--L--------------------10\------|
--------------------------------|
--L--0--0--0--0--0--0---8\------|
-----0--0--0--0--0--0-----------|


  S  S  S  S Q    S S E   E   E
---------------------------------|
---------------------------------|
----------------------7S--5S--7--|
------------------x-x------------|
------------------x-x-5S--3S--5--|
--3h-5p-3p-0-0----x-x------------|


     PM PM PM PM PM PM
  E  E  S  S  S  S  E   Q.
--------------------------------|
--------------------------------|
--L--------------------10\------|
--------------------------------|
--L--0--0--0--0--0--0---8\------|
-----0--0--0--0--0--0-----------|


  S  S  S  S Q    S S E   E   E
---------------------------------|
---------------------------------|
----------------------7S--5S--7--|
------------------x-x------------|
------------------x-x-5S--3S--5--|
--3h-5p-3p-0-0----x-x------------|


     PM PM PM PM PM PM
  E  E  S  S  S  S  E   Q.
--------------------------------|
--------------------------------|
--L--------------------10\------|
--------------------------------|
--L--0--0--0--0--0--0---8\------|
-----0--0--0--0--0--0-----------|


  S  S  S  S Q    S S E   E   E
---------------------------------|
---------------------------------|
----------------------7S--5S--7--|
------------------x-x------------|
--3--5--3--0-0----x-x-5S--3S--5--|
--3h-5p-3p-0-0----x-x------------|


     PM PM PM PM PM PM
  E  E  S  S  S  S  E   Q.
--------------------------------|
--------------------------------|
--L--------------------10\------|
--------------------------------|
--L--0--0--0--0--0--0---8\------|
-----0--0--0--0--0--0-----------|


  S  S  S  S Q    S S E   E   E
---------------------------------|
---------------------------------|
----------------------7S--5S--7--|
------------------x-x------------|
--3--5--3--0-0----x-x-5S--3S--5--|
--3h-5p-3p-0-0----x-x------------|


     PM PM PM PM PM PM
  E  E  S  S  S  S  E   Q.
--------------------------------|
--------------------------------|
--L--------------------10\------|
--------------------------------|
--L--0--0--0--0--0--0---8\------|
-----0--0--0--0--0--0-----------|


  S  S  S  S Q    S S E   E   E
---------------------------------|
---------------------------------|
----------------------7S--5S--7--|
------------------x-x------------|
--3--5--3--0-0----x-x-5S--3S--5--|
--3h-5p-3p-0-0----x-x------------|


     PM PM PM PM PM PM
  E  E  S  S  S  S  E   Q.
--------------------------------|
--------------------------------|
--L--------------------10\------|
--------------------------------|
--L--0--0--0--0--0--0---8\------|
-----0--0--0--0--0--0-----------|


  S  S  S  S Q    S S E   E   E
---------------------------------|
---------------------------------|
----------------------7S--5S--7--|
------------------x-x------------|
--3--5--3--0-0----x-x-5S--3S--5--|
--3h-5p-3p-0-0----x-x------------|


     PM PM PM PM PM PM
  E  E  S  S  S  S  E   Q.
--------------------------------|
--------------------------------|
--L--------------------10\------|
--------------------------------|
--L--0--0--0--0--0--0---8\------|
-----0--0--0--0--0--0-----------|

VERSE
  E  E  E  E  E  E  E  E     E  E  E  E  E  E  Q
--------------------------|-------------------------|
--------------------------|-------------------------|
--------------------------|-------------------------|
--3--5--3--0-----0-----0--|-----0-----0--3--0--3----|
--3--5--3--0-----0-----0--|-----0-----0--3--0--3----|
--3--5--3--0-----0-----0--|-----0-----0--3--0--3----|


  E  E  E  E  E  E  E  E     E  E  E  E  E  E  Q
--------------------------|-------------------------|
--------------------------|-------------------------|
--------------------------|-------------------------|
--3--5--3--0-----0-----0--|-----0-----0--3--0--3----|
--3--5--3--0-----0-----0--|-----0-----0--3--0--3----|
--3--5--3--0-----0-----0--|-----0-----0--3--0--3----|


  E  E  E  E  E  E  E  E     E  E  E  E  E  E  Q
--------------------------|-------------------------|
--------------------------|-------------------------|
--------------------------|-------------------------|
--3--5--3--0-----0-----0--|-----0-----0--3--0--3----|
--3--5--3--0-----0-----0--|-----0-----0--3--0--3----|
--3--5--3--0-----0-----0--|-----0-----0--3--0--3----|


  E  E  E  E  E  E  E  E     E  E  E  E  E  E  E  E
--------------------------|--------------------------|
--------------------------|--------------------------|
--------------------------|--------------------------|
--3--5--3--0-----0-----0--|-----0-----0-----3-----3--|
--3--5--3--0-----0-----0--|-----0-----0-----3-----3--|
--3--5--3--0-----0-----0--|-----0-----0-----3-----3--|


  E  E  E  E  E  E  E  E     E  E  E  E  E  E  Q
--------------------------|-------------------------|
--------------------------|-------------------------|
--------------------------|-------------------------|
--3--5--3--0-----0-----0--|-----0-----0--3--0--3----|
--3--5--3--0-----0-----0--|-----0-----0--3--0--3----|
--3--5--3--0-----0-----0--|-----0-----0--3--0--3----|


  E  E  E  E  E  E  E  E     E  E  E  E  E  E  Q
--------------------------|-------------------------|
--------------------------|-------------------------|
--------------------------|-------------------------|
--3--5--3--0-----0-----0--|-----0-----0--3--0--3----|
--3--5--3--0-----0-----0--|-----0-----0--3--0--3----|
--3--5--3--0-----0-----0--|-----0-----0--3--0--3----|


  E  E  E  E  E  E  E  E     E  E  E  E  E  E  Q
--------------------------|-------------------------|
--------------------------|-------------------------|
--------------------------|-------------------------|
--3--5--3--0-----0-----0--|-----0-----0--3--0--3----|
--3--5--3--0-----0-----0--|-----0-----0--3--0--3----|
--3--5--3--0-----0-----0--|-----0-----0--3--0--3----|


  E  E  E  E  E  E  E  E     E  E  E  E  E  E  E  E
--------------------------|--------------------------|
--------------------------|--------------------------|
--------------------------|--------------------------|
--3--5--3--0-----0-----0--|-----0-----0-----3-----3--|
--3--5--3--0-----0-----0--|-----0-----0-----3-----3--|
--3--5--3--0-----0-----0--|-----0-----0-----3-----3--|

CHORUS
                                    |-3-|
  S S E  H.              S Q.     S S S S E  Q
----------------------|---------------------------|
----------------------|---------------------------|
--x-x-x--7------------|---------------------------|
--x-x-x--7------------|--x-3------L---------------|
--x-x-x--5------------|--x-3------L-------3-------|
----------------------|--x-3------L-3-3-3----0----|


                                  |-3-|
  S S E  H.              H        S S S E  Q
----------------------|-------------------------|
----------------------|-------------------------|
--x-x-x--7------------|-------------------------|
--x-x-x--7------------|--3----------------------|
--x-x-x--5------------|--3--------------3-------|
----------------------|--3--------3-3-3----0----|


                                    |-3-|
  S S E  H.              S Q.     S S S S E  Q
----------------------|---------------------------|
----------------------|---------------------------|
--x-x-x--7------------|---------------------------|
--x-x-x--7------------|--x-3------L---------------|
--x-x-x--5------------|--x-3------L-------3-------|
----------------------|--x-3------L-3-3-3----0----|


                                    |-3-|
  S S E  H.              S Q.     S S S S E  Q
----------------------|---------------------------|
----------------------|---------------------------|
--x-x-x--7------------|---------------------------|
--x-x-x--7------------|--x-3------L---------------|
--x-x-x--5------------|--x-3------L-------3-------|
----------------------|--x-3------L-3-3-3----0----|


  S  S  S  S Q    S S E   E   E
---------------------------------|
---------------------------------|
----------------------7S--5S--7--|
------------------x-x------------|
------------------x-x-5S--3S--5--|
--3h-5p-3p-0-0----x-x------------|


     PM PM PM PM PM PM
  E  E  S  S  S  S  E   Q.
--------------------------------|
--------------------------------|
--L--------------------10\------|
--------------------------------|
--L--0--0--0--0--0--0---8\------|
-----0--0--0--0--0--0-----------|


  S  S  S  S Q    S S E   E   E
---------------------------------|
---------------------------------|
----------------------7S--5S--7--|
------------------x-x------------|
------------------x-x-5S--3S--5--|
--3h-5p-3p-0-0----x-x------------|


     PM PM PM PM PM PM
  E  E  S  S  S  S  E   Q.
--------------------------------|
--------------------------------|
--L--------------------10\------|
--------------------------------|
--L--0--0--0--0--0--0---8\------|
-----0--0--0--0--0--0-----------|

VERSE
  E  E  E  E  E  E  E  E     E  E  E  E  E  E  Q
--------------------------|-------------------------|
--------------------------|-------------------------|
--------------------------|-------------------------|
--3--5--3--0-----0-----0--|-----0-----0--3--0--3----|
--3--5--3--0-----0-----0--|-----0-----0--3--0--3----|
--3--5--3--0-----0-----0--|-----0-----0--3--0--3----|


  E  E  E  E  E  E  E  E     E  E  E  E  E  E  Q
--------------------------|-------------------------|
--------------------------|-------------------------|
--------------------------|-------------------------|
--3--5--3--0-----0-----0--|-----0-----0--3--0--3----|
--3--5--3--0-----0-----0--|-----0-----0--3--0--3----|
--3--5--3--0-----0-----0--|-----0-----0--3--0--3----|


  E  E  E  E  E  E  E  E     E  E  E  E  E  E  Q
--------------------------|-------------------------|
--------------------------|-------------------------|
--------------------------|-------------------------|
--3--5--3--0-----0-----0--|-----0-----0--3--0--3----|
--3--5--3--0-----0-----0--|-----0-----0--3--0--3----|
--3--5--3--0-----0-----0--|-----0-----0--3--0--3----|


  E  E  E  E  E  E  E  E     E  E  E  E  E  E  E  E
--------------------------|--------------------------|
--------------------------|--------------------------|
--------------------------|--------------------------|
--3--5--3--0-----0-----0--|-----0-----0-----3-----3--|
--3--5--3--0-----0-----0--|-----0-----0-----3-----3--|
--3--5--3--0-----0-----0--|-----0-----0-----3-----3--|


  E  E  E  E  E  E  E  E     E  E  E  E  E  E  Q
--------------------------|-------------------------|
--------------------------|-------------------------|
--------------------------|-------------------------|
--3--5--3--0-----0-----0--|-----0-----0--3--0--3----|
--3--5--3--0-----0-----0--|-----0-----0--3--0--3----|
--3--5--3--0-----0-----0--|-----0-----0--3--0--3----|


  E  E  E  E  E  E  E  E     E  E  E  E  E  E  Q
--------------------------|-------------------------|
--------------------------|-------------------------|
--------------------------|-------------------------|
--3--5--3--0-----0-----0--|-----0-----0--3--0--3----|
--3--5--3--0-----0-----0--|-----0-----0--3--0--3----|
--3--5--3--0-----0-----0--|-----0-----0--3--0--3----|


  E  E  E  E  E  E  E  E     E  E  E  E  E  E  Q
--------------------------|-------------------------|
--------------------------|-------------------------|
--------------------------|-------------------------|
--3--5--3--0-----0-----0--|-----0-----0--3--0--3----|
--3--5--3--0-----0-----0--|-----0-----0--3--0--3----|
--3--5--3--0-----0-----0--|-----0-----0--3--0--3----|


  E  E  E  E  E  E  E  E     E  E  E  E  E  E  E  E
--------------------------|--------------------------|
--------------------------|--------------------------|
--------------------------|--------------------------|
--3--5--3--0-----0-----0--|-----0-----0-----3-----3--|
--3--5--3--0-----0-----0--|-----0-----0-----3-----3--|
--3--5--3--0-----0-----0--|-----0-----0-----3-----3--|

CHORUS
                                    |-3-|
  S S E  H.              S Q.     S S S S E  Q
----------------------|---------------------------|
----------------------|---------------------------|
--x-x-x--7------------|---------------------------|
--x-x-x--7------------|--x-3------L---------------|
--x-x-x--5------------|--x-3------L-------3-------|
----------------------|--x-3------L-3-3-3----0----|


                                  |-3-|
  S S E  H.              H        S S S E  Q
----------------------|-------------------------|
----------------------|-------------------------|
--x-x-x--7------------|-------------------------|
--x-x-x--7------------|--3----------------------|
--x-x-x--5------------|--3--------------3-------|
----------------------|--3--------3-3-3----0----|


                                    |-3-|
  S S E  H.              S Q.     S S S S E  Q
----------------------|---------------------------|
----------------------|---------------------------|
--x-x-x--7------------|---------------------------|
--x-x-x--7------------|--x-3------L---------------|
--x-x-x--5------------|--x-3------L-------3-------|
----------------------|--x-3------L-3-3-3----0----|


                                    |-3-|
  S S E  H.              S Q.     S S S S E  Q
----------------------|---------------------------|
----------------------|---------------------------|
--x-x-x--7------------|---------------------------|
--x-x-x--7------------|--x-3------L---------------|
--x-x-x--5------------|--x-3------L-------3-------|
----------------------|--x-3------L-3-3-3----0----|

BREAKDOWN
  Q     E  E  E  E  E  E     E  E  E  E  E  E  E  E
--------------------------|--------------------------|
--------------------------|--------------------------|
--------------------------|--------------------------|
--------------0-----0-----|--3-----3-----5-----5-----|
--5-----3--0--0-----0-----|--3-----3-----5-----5-----|
--5b----3--0--0-----0-----|--3-----3-----5-----5-----|


  Q     E  E  E  E  E  E     E  E  E  E  E  E  E  E
--------------------------|--------------------------|
--------------------------|--------------------------|
--------------------------|--------------------------|
--------------0-----0-----|--3-----3-----5-----5-----|
--5-----3--0--0-----0-----|--3-----3-----5-----5-----|
--5b----3--0--0-----0-----|--3-----3-----5-----5-----|


  Q     E  E  E  E  E  E     E  E  E  E  E  E  E  E
--------------------------|--------------------------|
--------------------------|--------------------------|
--------------------------|--------------------------|
--------------0-----0-----|--3-----3-----5-----5-----|
--5-----3--0--0-----0-----|--3-----3-----5-----5-----|
--5b----3--0--0-----0-----|--3-----3-----5-----5-----|


  Q     E  E  E  E  E  E     E  E  E  E  E  E  E  E
--------------------------|--------------------------|
--------------------------|--------------------------|
--------------------------|--------------------------|
--------------0-----0-----|--3-----3-----5-----5-----|
--5-----3--0--0-----0-----|--3-----3-----5-----5-----|
--5b----3--0--0-----0-----|--3-----3-----5-----5-----|


  E  H.           E     W
---------------------|-------------------|
---------------------|-------------------|
---------------------|-------------------|
--0------------------|-------------------|
--0------------------|-------------------|
--0------------------|-------------------|


  E  H.           E     W
---------------------|-------------------|
---------------------|-------------------|
---------------------|-------------------|
--0------------------|-------------------|
--0------------------|-------------------|
--0------------------|-------------------|


  E  H.           E     W
---------------------|-------------------|
---------------------|-------------------|
---------------------|-------------------|
--0------------------|-------------------|
--0------------------|-------------------|
--0------------------|-------------------|


  E  H.           E     W
---------------------|-------------------|
---------------------|-------------------|
---------------------|-------------------|
--0------------------|-------------------|
--0------------------|-------------------|
--0------------------|-------------------|

OUTRO CHORUS+VERSE
                                    |-3-|
  S S E  H.              S Q.     S S S S E  Q
----------------------|---------------------------|
----------------------|---------------------------|
--x-x-x--7------------|---------------------------|
--x-x-x--7------------|--x-3------L---------------|
--x-x-x--5------------|--x-3------L-------3-------|
----------------------|--x-3------L-3-3-3----0----|


                                  |-3-|
  S S E  H.              H        S S S E  Q
----------------------|-------------------------|
----------------------|-------------------------|
--x-x-x--7------------|-------------------------|
--x-x-x--7------------|--3----------------------|
--x-x-x--5------------|--3--------------3-------|
----------------------|--3--------3-3-3----0----|


                                    |-3-|
  S S E  H.              S Q.     S S S S E  Q
----------------------|---------------------------|
----------------------|---------------------------|
--x-x-x--7------------|---------------------------|
--x-x-x--7------------|--x-3------L---------------|
--x-x-x--5------------|--x-3------L-------3-------|
----------------------|--x-3------L-3-3-3----0----|


                                    |-3-|
  S S E  H.              S Q.     S S S S E  Q
----------------------|---------------------------|
----------------------|---------------------------|
--x-x-x--7------------|---------------------------|
--x-x-x--7------------|--x-3------L---------------|
--x-x-x--5------------|--x-3------L-------3-------|
----------------------|--x-3------L-3-3-3----0----|


  E  E  E  E  E  E  E  E     E  E  E  E  E  E  Q
--------------------------|-------------------------|
--------------------------|-------------------------|
--------------------------|-------------------------|
--3--5--3--0-----0-----0--|-----0-----0--3--0--3----|
--3--5--3--0-----0-----0--|-----0-----0--3--0--3----|
--3--5--3--0-----0-----0--|-----0-----0--3--0--3----|


  E  E  E  E  E  E  E  E     E  E  E  E  E  E  Q
--------------------------|-------------------------|
--------------------------|-------------------------|
--------------------------|-------------------------|
--3--5--3--0-----0-----0--|-----0-----0--3--0--3----|
--3--5--3--0-----0-----0--|-----0-----0--3--0--3----|
--3--5--3--0-----0-----0--|-----0-----0--3--0--3----|


  E  E  E  E  E  E  E  E     E  E  E  E  E  E  Q
--------------------------|-------------------------|
--------------------------|-------------------------|
--------------------------|-------------------------|
--3--5--3--0-----0-----0--|-----0-----0--3--0--3----|
--3--5--3--0-----0-----0--|-----0-----0--3--0--3----|
--3--5--3--0-----0-----0--|-----0-----0--3--0--3----|


  E  E  E  E  E  E  E  E     E  E  E  E  E  E  Q
--------------------------|-------------------------|
--------------------------|-------------------------|
--------------------------|-------------------------|
--3--5--3--0-----0-----0--|-----0-----0--3--0--3----|
--3--5--3--0-----0-----0--|-----0-----0--3--0--3----|
--3--5--3--0-----0-----0--|-----0-----0--3--0--3----|


-------------------||
-------------------||
-------------------||
-------------------||
-------------------||
-------------------||

Enjoy, please don't rate wholly on the crappy chorus. The riff's the best part after all ;)

Duration Legend
---------------
W - whole
H - half
Q - quarter
E - 8th
S - 16th
T - 32nd
X - 64th
. - note dotted
|-n-|  - n-tuplets


Tablature Legend
----------------
L - tied note
x - dead note
g - grace note
(n) - ghost note
> - accentuded note
NH - natural harmonic
AH - artificial harmonic
TH - tapped harmonic
SH - semi harmonic
PH - pitch harmonic
h - hammer on
p - pull off
b - bend
br - bendRelease
pb - preBend
pbr - preBendRelease
brb - bendReleaseBend
\n/ - tremolo bar dip
\n - tremolo bar dive
-/n - tremolo bar Release up
/n\ - tremolo bar inverted dip
/n - tremolo bar return
-\n - tremolo bar Release down
S - shift slide
s - legato slide
/ -  slide into from below or out of upwards
\ -  slide into from above or out of downwards
~ - vibrato
W - wide vibrato
tr - trill
TP - tremolo picking
T - tapping
S - slap
P - pop
< - fade in
^ - brush up
v - brush down





Comments


Popular Mammal tabs & chords
Burn Out Bass Tabs
Clear Enough Bass Tabs
Mr Devil Bass Tabs
Smash The Pinata Bass Tabs
Aural Underground Intro Tabs
Smash The Pinata Tabs
Smash The Pinata 1 Tabs
The Majority 1 Tabs
The Majority 2 Tabs
The Majority Intro Tabs


Song lyrics



↑ Back to top | Tablatures and chords are parodies/interpretations of the original songs. You may use it for private study, scholarship, research or language learning purposes only
© 2014 AZChords.com Contact us | Privacy policy | DMCA | Add/correct tabs | Request tabs | Top 50 tabs