» » »

Mammal, The Majority Tabs (ver.3)

Artists:  A B C D E F G H I J K L M N O P Q R S T U V W X Y Z # 

The Majority Tabs (ver.3)

Mammal Tabs
 Rating:
4/5 (6 votes)
The Majority lessons Tabs too difficult? Try these video lessons and learn fast
1
                drop c-cgcfad

wohoo,  the first whole song i learned by ear

intro
d|-------------------------|\
a|-------------------------||
f|------xx-7/5/7-xxxxxx-10-| \4 times
c|------xx-7/5/7-xxxxxx-10-| /
g|------xx-5/3/5-xxxxxx- 8-||
c|-3h5p0-------------------|/

d|-------------------------|\
a|-------------------------||
f|------xx-7/5/7-xxxxxx-10-| \4 times
c|-3h5p0xx-7/5/7-xxxxxx-10-| /
g|-3h5p0xx-5/3/5-xxxxxx- 8-||
c|-3h5p0-------------------|/

verse
d|-------------------|\         d|--------------------|
a|-------------------||         a|--------------------|
f|-------------------| \3 times f|--------------------|
c|-3-5-3-0-0-0-0-0303| /        c|-3-5-3-0-0-0-0-0-3-3|
g|-3-5-3-0-0-0-0-0303||         g|-3-5-3-0-0-0-0-0-3-3|
c|-3-5-3-0-0-0-0-0303|/         c|-3-5-3-0-0-0-0-0-3-3| do all this untill end of verse

chorus
d|-----------------|\
a|-----------------||
f|xxxx-7-10--------| \4 times
c|xxxx-7-10--------| /
g|xxxx-5- 8-5-5-8-5||
c|----------0-0---0|/

bridge
d|------------------|\
a|------------------||
f|------------------||4 times
c|-6-5-3-0-0-3-3-4-5||
g|-6-5-3-0-0-3-3-4-5||
c|-6-5-3-0-0-3-3-4-5|/

d|--------------------------|
a|--------------------------|
f|--------------------------|
c|-0-------0-------0-------0|
g|-0-------0-------0-------0|
c|-0-------0-------0-------0|

(alternative intro)
intro
d|-------------------------|\
a|---------------palm m----||
f|------xx-7/5/7-777777-10-| \4 times
c|-3h5p0xx-7/5/7-777777-10-| /
g|-3h5p0xx-5/3/5-555555- 8-||
c|-3h5p0-------------------|/

palm m=palm mute
            
Submit corrections

comments powered by Disqus
↑ Back to top | Mammal Tabs for The Majority. Lyrics for acoustic guitar and electric guitar. 1 Tablatures and chords are parodies/interpretations of the original songs. You may use it for private study, scholarship, research or language learning purposes only