>
 >
Molinos De Viento 1

Molinos De Viento 1 Guitar Tabs

Mago De Oz - Molinos De Viento 1 chords, tabs, tablatures, lyrics

Guitar lessons | Add/correct | Request | Top 50 tabs Artists:  A B C D E F G H I J K L M N O P Q R S T U V W X Y Z 0-9

Molinos De Viento 1 Guitar Tabs – Mago De Oz

CD, Sheet music, Poster

Do you like Molinos De Viento 1? Share with your friends now
TabsTabs v2Tabs v3Tabs v4
Mago De Oz Molinos De Viento


Intro en violin
x2
1|-15--15-15-15-15-17-15-15-14-15-15-----|
2|----------------------------------17---|
3|---------------------------------------|
4|---------------------------------------|
5|---------------------------------------|
6|---------------------------------------|

1|-15--15-15-15-15-17-15-15-14-15-14-----|
2|----------------------------------15---|
3|---------------------------------------|
4|---------------------------------------|
5|---------------------------------------|
6|---------------------------------------|

1|-14--14-14-14-14-17-14-14--14-14-------|
2|-------------------------15------------|
3|---------------------------------------|
4|---------------------------------------|
5|---------------------------------------|
6|---------------------------------------|


1|---------12-17-------14-17-15----------|
2|-13-13-13-------15-15------------------|
3|---------------------------------------|
4|---------------------------------------|
5|---------------------------------------|
6|---------------------------------------|

Guitarras
Riff 1 x2
1|------------------------------------------------------|
2|------------------------------------------------------|
3|------------------------------------------------------|
4|-7-9--9-9---------9-7-9---------9-9-7-7---------7-----|
5|-5-7--7-7-7-7-7-7-7-5-7-7-7-7-7-7-7-5-5-5-5-5-5-5-----|
6|------------------------------------------------------|
            Pm.....       Pm....         pm....

1|-----------------------------|
2|-----------------------------|
3|----------------------------*|
4|-------5--------7-----------*|
5|-3-3-3-3--5-5-5-5------------|
6|-----------------------------|
   pm...    pm...

Riff2 x2
(0:15) Si acazo tu no vez...
1|--------------------------------------------------|
2|--------------------------------------------------|
3|------------------------------------------------*-|
4|-5-9---9-7--------5--------7--------------------*-|
5|-7-7---7-5--3-3-3-3--5-5-5-5----------------------|
6|--------------------------------------------------|
              PM...    PM...

Riff1 x2 (0:28)
Amigo Sancho escuchame...
1|------------------------------------------------------|
2|------------------------------------------------------|
3|------------------------------------------------------|
4|-7-9--9-9---------9-7-9---------9-9-7-7---------7-----|
5|-5-7--7-7-7-7-7-7-7-5-7-7-7-7-7-7-7-5-5-5-5-5-5-5-----|
6|------------------------------------------------------|
            Pm.....       Pm....         pm....

1|-----------------------------|
2|-----------------------------|
3|----------------------------*|
4|-------5--------7-----------*|
5|-3-3-3-3--5-5-5-5------------|
6|-----------------------------|
   pm...    pm...

Acustico(0:42)con el rasgeo de abajo arriba
Avezes siento el despertar...

1|-0-0-0-0-0-0--0-0-0--3-3-3--0-0-0----|
2|-0-0-0-0-0-0--0-0-0--2-2-2--1-1-1----|
3|-0-0-0-0-0-0--0-0-0--3-3-3--0-0-0--*-|
4|-2-2-2-2-2-2--2-2-2--0-0-0--2-2-2--*-|
5|-2-2-2-2-2-2--2-2-2---------3-3-3----|
6|-0-0-0-0-0-0--0-0-0---------0-0-0----|

1|-0-0-0-0-0-0--0-0-0--3-3-3--0-0-0----|
2|-0-0-0-0-0-0--0-0-0--2-2-2--1-1-1----|
3|-0-0-0-0-0-0--0-0-0--3-3-3--0-0-0--*-|
4|-2-2-2-2-2-2--2-2-2--0-0-0--2-2-2--*-|
5|-2-2-2-2-2-2--2-2-2---------3-3-3----|
6|-0-0-0-0-0-0--0-0-0---------0-0-0----|

1|-3-3-3-3-3-3--3-3-3--3-3-3--0-0-0----|
2|-0-0-0-0-0-0--0-0-0--2-2-2--1-1-1----|
3|-0-0-0-0-0-0--0-0-0--3-3-3--0-0-0----|
4|-0-0-0-0-0-0--0-0-0--0-0-0--2-2-2----|
5|-2-2-2-2-2-2--2-2-2---------3-3-3----|
6|-3-3-3-3-3-3--3-3-3---------0-0-0----|

1|-3-3-3-3-3-3--3-3-3--3-3-3--0-0-0----|
2|-0-0-0-0-0-0--0-0-0--2-2-2--1-1-1----|
3|-0-0-0-0-0-0--0-0-0--3-3-3--0-0-0----|
4|-0-0-0-0-0-0--0-0-0--0-0-0--2-2-2----|
5|-2-2-2-2-2-2--2-2-2---------3-3-3----|
6|-3-3-3-3-3-3--3-3-3---------0-0-0----|

 Riff3 (0:56)
Bebe danza sue?
1|--------------------------------------|
2|--------------------------------------|
3|--------------------------------------|
4|-9-------9---------7-------7-----5----|
5|-7-7-7-7-7-7-7-7-7-5-5-5-5-5-3-3-3----|
6|--------------------------------------|
     Pm...   Pm.....   Pm...   pm.

1|--------------------------------------|
2|--------------------------------------|
3|--------------------------------------|
4|-9-------9---------7-------7-----5----|
5|-7-7-7-7-7-7-7-7-7-5-5-5-5-5-3-3-3----|
6|--------------------------------------|
     Pm...   Pm.....   Pm...   pm.

1|--------------------------------------|
2|--------------------------------------|
3|--------------------------------------|
4|------------7------7------5-----------|
5|-5-5-----5--5--5-5-5--3-3-3-----------|
6|-3-3-3-3-3----------------------------|
       pm.       pm.    pm.


1|--------------------------------------|
2|--------------------------------------|
3|--------------------------------------|
4|------------7-------------------------|
5|-5-5-----5--5-------------------------|
6|-3-3-3-3-3----------------------------|
       pm.

Punteo (1:09)
Que de tu vida seas...
1|---------------------------------------|
2|---------------------------------------|
3|----4-7-5-4----------------------------|
4|-5-7-------7-5-4-------5---------------|
5|----------------5-4-3-2----------------|
6|---------------------------------------|

(1:11)
1|---------------------------------------|
2|---------------------------------------|
3|----------------4----------------------|
4|----------------2----------------------|
5|-4-4-4--4--4-4-4-----------------------|
6|-2-2-2--2--2-2-2-----------------------|

Riff1 x2 (1:13)
1|------------------------------------------------------|
2|------------------------------------------------------|
3|------------------------------------------------------|
4|-7-9--9-9---------9-7-9---------9-9-7-7---------7-----|
5|-5-7--7-7-7-7-7-7-7-5-7-7-7-7-7-7-7-5-5-5-5-5-5-5-----|
6|------------------------------------------------------|
            Pm.....       Pm....         pm....

1|-----------------------------|
2|-----------------------------|
3|----------------------------*|
4|-------5--------7-----------*|
5|-3-3-3-3--5-5-5-5------------|
6|-----------------------------|
   pm...    pm...

Riff2 x2
(1:28)
Si acazo tu opinion...
1|--------------------------------------------------|
2|--------------------------------------------------|
3|------------------------------------------------*-|
4|-5-9---9-7--------5--------7--------------------*-|
5|-7-7---7-5--3-3-3-3--5-5-5-5----------------------|
6|--------------------------------------------------|
              PM...    PM...

Riff1 x2
(1:40)
No todo es blanco...
1|------------------------------------------------------|
2|------------------------------------------------------|
3|------------------------------------------------------|
4|-7-9--9-9---------9-7-9---------9-9-7-7---------7-----|
5|-5-7--7-7-7-7-7-7-7-5-7-7-7-7-7-7-7-5-5-5-5-5-5-5-----|
6|------------------------------------------------------|
            Pm.....       Pm....         pm....

1|-----------------------------|
2|-----------------------------|
3|----------------------------*|
4|-------5--------7-----------*|
5|-3-3-3-3--5-5-5-5------------|
6|-----------------------------|
   pm...    pm...

Acustico
(1:54)
He visto un manantial...
1|-0-0-0-0-0-0--0-0-0--3-3-3--0-0-0----|
2|-0-0-0-0-0-0--0-0-0--2-2-2--1-1-1----|
3|-0-0-0-0-0-0--0-0-0--3-3-3--0-0-0--*-|
4|-2-2-2-2-2-2--2-2-2--0-0-0--2-2-2--*-|
5|-2-2-2-2-2-2--2-2-2---------3-3-3----|
6|-0-0-0-0-0-0--0-0-0---------0-0-0----|

1|-0-0-0-0-0-0--0-0-0--3-3-3--0-0-0----|
2|-0-0-0-0-0-0--0-0-0--2-2-2--1-1-1----|
3|-0-0-0-0-0-0--0-0-0--3-3-3--0-0-0--*-|
4|-2-2-2-2-2-2--2-2-2--0-0-0--2-2-2--*-|
5|-2-2-2-2-2-2--2-2-2---------3-3-3----|
6|-0-0-0-0-0-0--0-0-0---------0-0-0----|

1|-3-3-3-3-3-3--3-3-3--3-3-3--0-0-0----|
2|-0-0-0-0-0-0--0-0-0--2-2-2--1-1-1----|
3|-0-0-0-0-0-0--0-0-0--3-3-3--0-0-0----|
4|-0-0-0-0-0-0--0-0-0--0-0-0--2-2-2----|
5|-2-2-2-2-2-2--2-2-2---------3-3-3----|
6|-3-3-3-3-3-3--3-3-3---------0-0-0----|

1|-3-3-3-3-3-3--3-3-3--3-3-3--0-0-0----|
2|-0-0-0-0-0-0--0-0-0--2-2-2--1-1-1----|
3|-0-0-0-0-0-0--0-0-0--3-3-3--0-0-0----|
4|-0-0-0-0-0-0--0-0-0--0-0-0--2-2-2----|
5|-2-2-2-2-2-2--2-2-2---------3-3-3----|
6|-3-3-3-3-3-3--3-3-3---------0-0-0----|

Riff3 x2
(2:08)
Bebe danza sue?
1|--------------------------------------|
2|--------------------------------------|
3|--------------------------------------|
4|-9-------9---------7-------7-----5----|
5|-7-7-7-7-7-7-7-7-7-5-5-5-5-5-3-3-3----|
6|--------------------------------------|
     Pm...   Pm.....   Pm...   pm.

1|--------------------------------------|
2|--------------------------------------|
3|--------------------------------------|
4|-9-------9---------7-------7-----5----|
5|-7-7-7-7-7-7-7-7-7-5-5-5-5-5-3-3-3----|
6|--------------------------------------|
     Pm...   Pm.....   Pm...   pm.

1|--------------------------------------|
2|--------------------------------------|
3|--------------------------------------|
4|------------7------7------5-----------|
5|-5-5-----5--5--5-5-5--3-3-3-----------|
6|-3-3-3-3-3----------------------------|
       pm.       pm.    pm.


1|--------------------------------------|
2|--------------------------------------|
3|--------------------------------------|
4|------------7-------------------------|
5|-5-5-----5--5-------------------------|
6|-3-3-3-3-3----------------------------|
       pm.

Punteo
(2:21)
Que de tu vida seas...
1|---------------------------------------|
2|---------------------------------------|
3|----4-7-5-4----------------------------|
4|-5-7-------7-5-4-------5---------------|
5|----------------5-4-3-2----------------|
6|---------------------------------------|

Riff4(2:23)
1|---------------------------------------|
2|---------------------------------------|
3|---------------------------------------|
4|-9-9-9-9-9--9-9-9-9-7-9----------------|
5|-7-7-7-7-7--7-7-7-7-5-7----------------|
6|---------------------------------------|

1|---------------------------------------|
2|---------------------------------------|
3|---------------------------------------|
4|-9-9-9-9-9-7-5-5-5-7-5-4-4-------------|
5|-7-7-7-7-7-5-3-3-3-5-3-2-2-------------|
6|---------------------------------------|

1|---------------------------------------|
2|---------------------------------------|
3|---------------------------------------|
4|-9--7-9--9-7--5-5--5-7-----------------|
5|-7--5-7--7-5--3-3--5-7-----------------|
6|---------------------------------------|

REKINTO
(2:38)

1|-9-9-9-7-------7-----------------------|
2|--------10-9-10-10-9-10-9-7------------|
3|---------------------------------------|
4|---------------------------------------|
5|---------------------------------------|
6|---------------------------------------|

1|-9-9-9-7-------------------------------|
2|--------10-9-10-9-7~~------------------|
3|---------------------------------------|
4|---------------------------------------|
5|---------------------------------------|
6|---------------------------------------|

1|-9-9-9-7-------7-----------------------|
2|--------10-9-10-10-9-10-9-7------------|
3|---------------------------------------|
4|---------------------------------------|
5|---------------------------------------|
6|---------------------------------------|

1|---------7-----------------------------|
2|-7-7-9-10-10-9-10-9-7------------------|
3|---------------------------------------|
4|---------------------------------------|
5|---------------------------------------|
6|---------------------------------------|

1|---------------------------------------|
2|---------------------------------------|
3|---------------------------------------|
4|---------------------------------------|
5|---------------------------------------|
6|---------------------------------------|

**''(2:47)''**
1|-9-9-9-7-------7-----------------------|
2|--------10-9-10-10-9-10-9-7------------|
3|---------------------------------------|
4|---------------------------------------|
5|---------------------------------------|
6|---------------------------------------|

1|-9-9-9-7-------------------------------|
2|--------10-9-10-9-7~~------------------|
3|---------------------------------------|
4|---------------------------------------|
5|---------------------------------------|
6|---------------------------------------|

1|-9-9-9-7-------7-----------------------|
2|--------10-9-10-10-9-10-9-7------------|
3|---------------------------------------|
4|---------------------------------------|
5|---------------------------------------|
6|---------------------------------------|

1|---------7-----------------------------|
2|-7-7-9-10-10-9-10-9-7------------------|
3|---------------------------------------|
4|---------------------------------------|
5|---------------------------------------|
6|---------------------------------------|

Todo el amcompa?to del requinto y el solo es el Riff1

**Solo**
(2:54)

Acustico x2
(3:08)
Aveces siento el despertar...
1|-0-0-0-0-0-0--0-0-0--3-3-3--0-0-0----|
2|-0-0-0-0-0-0--0-0-0--2-2-2--1-1-1----|
3|-0-0-0-0-0-0--0-0-0--3-3-3--0-0-0--*-|
4|-2-2-2-2-2-2--2-2-2--0-0-0--2-2-2--*-|
5|-2-2-2-2-2-2--2-2-2---------3-3-3----|
6|-0-0-0-0-0-0--0-0-0---------0-0-0----|

1|-0-0-0-0-0-0--0-0-0--3-3-3--0-0-0----|
2|-0-0-0-0-0-0--0-0-0--2-2-2--1-1-1----|
3|-0-0-0-0-0-0--0-0-0--3-3-3--0-0-0--*-|
4|-2-2-2-2-2-2--2-2-2--0-0-0--2-2-2--*-|
5|-2-2-2-2-2-2--2-2-2---------3-3-3----|
6|-0-0-0-0-0-0--0-0-0---------0-0-0----|

1|-3-3-3-3-3-3--3-3-3--3-3-3--0-0-0----|
2|-0-0-0-0-0-0--0-0-0--2-2-2--1-1-1----|
3|-0-0-0-0-0-0--0-0-0--3-3-3--0-0-0----|
4|-0-0-0-0-0-0--0-0-0--0-0-0--2-2-2----|
5|-2-2-2-2-2-2--2-2-2---------3-3-3----|
6|-3-3-3-3-3-3--3-3-3---------0-0-0----|

1|-3-3-3-3-3-3--3-3-3--3-3-3--0-0-0----|
2|-0-0-0-0-0-0--0-0-0--2-2-2--1-1-1----|
3|-0-0-0-0-0-0--0-0-0--3-3-3--0-0-0----|
4|-0-0-0-0-0-0--0-0-0--0-0-0--2-2-2----|
5|-2-2-2-2-2-2--2-2-2---------3-3-3----|
6|-3-3-3-3-3-3--3-3-3---------0-0-0----|

Riff3 x2
(3:36)
Bebe danza sue?
1|--------------------------------------|
2|--------------------------------------|
3|--------------------------------------|
4|-9-------9---------7-------7-----5----|
5|-7-7-7-7-7-7-7-7-7-5-5-5-5-5-3-3-3----|
6|--------------------------------------|
     Pm...   Pm.....   Pm...   pm.

1|--------------------------------------|
2|--------------------------------------|
3|--------------------------------------|
4|-9-------9---------7-------7-----5----|
5|-7-7-7-7-7-7-7-7-7-5-5-5-5-5-3-3-3----|
6|--------------------------------------|
     Pm...   Pm.....   Pm...   pm.

1|--------------------------------------|
2|--------------------------------------|
3|--------------------------------------|
4|------------7------7------5-----------|
5|-5-5-----5--5--5-5-5--3-3-3-----------|
6|-3-3-3-3-3----------------------------|
       pm.       pm.    pm.


1|--------------------------------------|
2|--------------------------------------|
3|--------------------------------------|
4|------------7-------------------------|
5|-5-5-----5--5-------------------------|
6|-3-3-3-3-3----------------------------|
       pm.
Punteo
(4:02)
Que de tu vida seas...
1|---------------------------------------|
2|---------------------------------------|
3|----4-7-5-4----------------------------|
4|-5-7-------7-5-4-------5---------------|
5|----------------5-4-3-2----------------|
6|---------------------------------------|

Finn.!!
(4:07)
1|---------------------------------------|
2|---------------------------------------|
3|---------------------------------------|
4|---------------------------------------|
5|-2-0-----------------------------------|
6|----3-0--------------------------------|





Comments


Popular Mago De Oz tabs & chords
Fiesta Pagana Chords
Maritornes Chords
El Arbol De La Noche Triste Tabs
El Santo Grial Tabs
La Santa Compana Tabs
Lo Que El Viento Se Dejo Tabs
Maritormes Tabs
Mi Nombre Es Rock N Roll Tabs
El Cantar De La Luna Oscura Ukulele
Resacosix En La Barra Ukulele


Song lyrics



↑ Back to top | Tablatures and chords are parodies/interpretations of the original songs. You may use it for private study, scholarship, research or language learning purposes only
© 2014 AZChords.com Contact us | Privacy policy | DMCA | Add/correct tabs | Request tabs | Top 50 tabs