>
 >
Molinos De Viento

Molinos De Viento Guitar Tabs

Mago De Oz - Molinos De Viento chords, tabs, tablatures, lyrics

Guitar lessons | Add/correct | Request | Top 50 tabs Artists:  A B C D E F G H I J K L M N O P Q R S T U V W X Y Z 0-9

Molinos De Viento Guitar Tabs – Mago De Oz

CD, Sheet music, Poster

Do you like Molinos De Viento? Share with your friends now
TabsTabs v2Tabs v3Tabs v4






 violin
 -----------------------repite---------------------------- 
e|-15-15-15-15-15-15-15-17-15-15-15-15-----15-15-15-15----|
B|-------------------------------------19--------------17-|
G|--------------------------------------------------------|
D|--------------------------------------------------------|
A|--------------------------------------------------------|
E|--------------------------------------------------------|


|-15-15-15-15-15-15-15-17-15-15-15-15-----15-15-15-15-----14-14-14-14-14-14-17-14-14-14-14-|
|-------------------------------------19--------------15-----------------------------------|
|------------------------------------------------------------------------------------------|
|------------------------------------------------------------------------------------------|
|------------------------------------------------------------------------------------------|
|------------------------------------------------------------------------------------------|
                                         cuando se repita por
                                         segunda vez se termina asi
|---14-|-------12-15-12--------14-17-14-|--14-17p14-15---|
|17----|-13-13-----------15-15----------|----------------|
|------|--------------------------------|----------------|
|------|--------------------------------|----------------|
|------|--------------------------------|----------------|
|------|--------------------------------|----------------|


      pm..........       ..............       ...........................    ..........
|------------------------------------------------------------------------------------------|
|------------------------------------------------------------------------------------------|
|------------------------------------------------------------------------------------------|
|--7-9---------------7-9-----------------5-7--------------------------------5-------------7|
|--5-7--7-7-7-7-7-7--5-7--7-7-7-7-7-7-7--3-5--5-5-5-5-5-5-5--3-3-3-3-3-3-3--3--5-5-5-5-5--5|
|------------------------------------------------------------------------------------------|

verse
|----------------------------------------|
|----------------------------------------|
|----------------------------------------|
|-9----7-9----5-7----------5-----------7-|
|-7----5-7----3-5--3-3-3-3-3--5-5-5-5--5-|
|----------------------------------------|

violin
|-------12-15-12--------14-17p14-15---|
|-13-13-----------15-15---------------|
|-------------------------------------|
|-------------------------------------|
|-------------------------------------|
|-------------------------------------|

      pm..........       ..............       ...........................    ..........
|------------------------------------------------------------------------------------------|
|------------------------------------------------------------------------------------------|
|------------------------------------------------------------------------------------------|
|--7-9---------------7-9-----------------5-7--------------------------------5-------------7|
|--5-7--7-7-7-7-7-7--5-7--7-7-7-7-7-7-7--3-5--5-5-5-5-5-5-5--3-3-3-3-3-3-3--3--5-5-5-5-5--5|
|------------------------------------------------------------------------------------------|


|-----------------|
|-----------------|
|-----------------|
|-9--(9)----------|
|-7--(7)----------|
|-----------------|

a veces siento el despertar......                    
  E                     D                  C
|-0-0-----0-0-0--0-0-0--2---2-2-2-2-2-2------------|
|-0-0-0-0-0-0-0--0-0-0--3-3-3-3-3-3-3-3-0--1-1-1-1-|
|-0-0-0-0-0-0-0--0-0-0--2-2-2-2-2-2-2-2-0--0-0-0-0-|
|-2-2-2-2-2-2-2--2-2-2--0-0---0-0-0-0---0--2-2-2-2-|
|-2-2-2-2-2-2-2--2-2-2--0-----------0---0--3-3-3-3-|
|-0-0-0-0-0-0-0--0-0-0-----------------------------|

el sueño es la realidad....
  G                     D                  C       | esto si kieren no lo token 
|-3---3---3---3--3-3-3--2---2-2-2-2-2-2------------|---------------------------------------|
|-3-3-3-3-3-3-3--3-3-3--3-3-3-3-3-3-3-3-0--1-1-1-1-|-12-12-12-12-12-12-12-12--7-7-7-7-7-7-7|
|-0-0-0-0-0-0-0--0-0-0--2-2-2-2-2-2-2-2-0--0-0-0-0-|-12-12-12-12-12-12-12-12--7-7-7-7-7-7-7|
|-0-0---0---0-0--0-0-0--0-0---0-0-0-0---0--2-2-2-2-|-12-12-12-12-12-12-12-12--7-7-7-7-7-7-7|
|-2-2---2---2----2-2-2--0-----------0---0--3-3-3-3-|-10-10-10-10-10-10-10-10--5-5-5-5-5-5-5|
|-3--------------3-3-3-----------------------------|---------------------------------------|

 ni esto  |
|---------|
|-5-5-5-5-|
|-5-5-5-5-|
|-5-5-5-5-|
|-3-3-3-3-|
|---------|

violin
|-------------------------------------------------|
|--------------------10-12-------------10---------|
|-12-9-12-9-12--9-12-------11----11-12-----9-12-9-|
|-----------------------------12------------------|
|-------------------------------------------------|
|-------------------------------------------------|

|-------------------------------------------------|
|--------------------10-12-------------10---------|
|-12-9-12-9-12--9-12-------11----11-12-------9--12|
|-----------------------------12------------------|
|-------------------------------------------------|
|-------------------------------------------------|

|-------------------------------------------------------|
|-----------------------13-15-------------13------------|
|-16-12-16-12-16-12-16--------14----14-16-----14-16--17-|
|--------------------------------16---------------------|
|-------------------------------------------------------|
|-------------------------------------------------------|

|-------------------------------------------------------|
|-----------------------13-15-------------13------------|
|-16-12-16-12-16-12-16--------14----14-16-----12--------|
|--------------------------------16---------------14----|
|-------------------------------------------------------|
|-------------------------------------------------------|

   pm......    ..........   .....................
|-------------------------------------------------|
|-------------------------------------------------|
|-------------------------------------------------|
|-9----------9-------------7--------------5-5-5-5-|
|-7----------7-------------5--------------3-3-3-3-|
|--0-0-0-0-0---0-0-0-0-0-0---0-0-0-0-0-0----------|

   pm.......     ......    ...................
|----------------------------------------------|
|----------------------------------------------|
|----------------------------------------------|
|-5------------5---------7-------------5-5-5-5-|
|-5------------5---------5-------------3-3-3-3-|
|-3-0-0-0-0-0--3-0-0-0-0---0-0-0-0-0-0---------|


|-------------------------------------------------------------|
|-------------------------------------------------------------|
|---------9-7-----------------------------------------------4-|
|---7-10------10-9-7------------------4--4-4-4-4--4--4-4-4--4-|
|-9------------------10-9-7-----------4--4-4-4-4--4--4-4-4--2-|
|---------------------------10-8-7-0--2--2-2-2-2--2--2-2-2----|



|-----------------------------------------------------------------|-----------------------|
|-----------------------------------------------------------------|-----------------------|
|-9--9-9-9-9-9-9--7-9--9-9-9-9-9--7--5--5-5-5-5-5--4--7-5--5--7-7-|-9--9-9--7--9--9-9-7--5|
|-9--9-9-9-9-9-9--7-9--9-9-9-9-9--7--5--5-5-5-5-5--4--7-5--5--7-7-|-9--9-9--7--9--9-9-7--5|
|-7--7-7-7-7-7-7--5-7--7-7-7-7-7--5--3--3-3-3-3-3--2--5-3--3--5-5-|-7--7-7--5--7--7-7-5--3|
|-----------------------------------------------------------------|-----------------------|


|----------|
|----------|
|-5-5--7-7-|
|-5-5--7-7-|
|-3-3--5-5-|
|----------|


|--------------------------------------|------------------------------|
|-12-12-12-12--------------------------|12-12-12-12-------------------|
|-------------14-12----12-14-12--------|------------14-12----12-------|
|-------------------16-----------16-14-|------------------16----16--14|
|--------------------------------------|------------------------------|
|--------------------------------------|------------------------------|
|--------------------------------------|------------------------------|

|-12-12-12-12--------------------------|------------------------------|
|-------------14-12----12-14-12--------|------------------------------|
|-------------------16-----------16-14-|---------12-14-12----12-------|
|--------------------------------------|12-14-16----------16----16-14-|
|--------------------------------------|------------------------------|
|--------------------------------------|------------------------------|

gt1
|-12-12-12-12--------------------------|12-12-12-12-------------------|
|-------------14-12----12-14-12--------|------------14-12----12-------|
|-------------------16-----------16-14-|------------------16----16--14|
|--------------------------------------|------------------------------|
|--------------------------------------|------------------------------|
|--------------------------------------|------------------------------|
gt2
|--------------------------------------|------------------------------|
|-15-15-15-15--------------------------|15-15-15-15-------------------|
|-------------17-15----15-17-15--------|------------17-15----15-------|
|-------------------19-----------19-17-|------------------19----19--17|
|--------------------------------------|------------------------------|
|--------------------------------------|------------------------------|
gt1
|--------------------------------------|------------------------------|
|-12-12-12-12--------------------------|------------------------------|
|-------------14-12----12-14-12--------|------------------------------|
|-------------------16-----------16-14-|---------12-14-12----12-------|
|--------------------------------------|12-14-16----------16----16-14-|
|--------------------------------------|------------------------------|
gt2
|--------------------------------------|------------------------------|
|-15-15-15-15--------------------------|------------------------------|
|-------------17-15----15-17-15--------|------------------------------|
|-------------------19-----------19-17-|---------15-17-15----15-------|
|--------------------------------------|-15-17-19---------19----19-17-|
|--------------------------------------|------------------------------|

solo
|------------------------------------------------------------------------------------------|
|------------------------------------------------------------------------------------------|
|-9~~~~--11-12--11-12-11--9--9h11----------------------------------------------------------|
|-------------------------------------------11h12h14p12p11-------------------11-12-14-12-11|
|----------------------------------10h12h14----------------14-12-11-11h12h14---------------|
|------------------------------------------------------------------------------------------|

|------------------------------------------------------------------------------------------|
|----------------12-13-15-13-15------------------------------------------------------------|
|-11-12-14-12-11----------------14p11-12-14-12-11-12-14-12-11--14-16--17-17--16~~~-17-16-14|
|------------------------------------------------------------------------------------------|
|------------------------------------------------------------------------------------------|
|------------------------------------------------------------------------------------------|

|-------------------------------------------------------------------------------|
|-----------15------------------------------------------------------------------|
|-16--14-16----17-16-17-16--14-16-14-----14-------------------------------------|
|-------------------------------------17----17--16-17-16--14-16-14-----14-------|
|-------------------------------------------------------------------17----17-16-|
|-------------------------------------------------------------------------------|

|-------------------------------|
|-------------------------------|
|-------------------------------|
|-14----14-16-17--16-14~~~/-----|
|----17-------------------------|
|-------------------------------|

  E                     D                  C
|-0-0-----0-0-0--0-0-0--2---2-2-2-2-2-2------------|
|-0-0-0-0-0-0-0--0-0-0--3-3-3-3-3-3-3-3-0--1-1-1-1-|
|-0-0-0-0-0-0-0--0-0-0--2-2-2-2-2-2-2-2-0--0-0-0-0-|
|-2-2-2-2-2-2-2--2-2-2--0-0---0-0-0-0---0--2-2-2-2-|
|-2-2-2-2-2-2-2--2-2-2--0-----------0---0--3-3-3-3-|
|-0-0-0-0-0-0-0--0-0-0-----------------------------|

  G                     D                  C      
|-3---3---3---3--3-3-3--2---2-2-2-2-2-2------------|
|-3-3-3-3-3-3-3--3-3-3--3-3-3-3-3-3-3-3-0--1-1-1-1-|
|-0-0-0-0-0-0-0--0-0-0--2-2-2-2-2-2-2-2-0--0-0-0-0-|
|-0-0---0---0-0--0-0-0--0-0---0-0-0-0---0--2-2-2-2-|
|-2-2---2---2----2-2-2--0-----------0---0--3-3-3-3-|
|-3--------------3-3-3-----------------------------|


 violin
|-------------------------------------------------|
|--------------------10-12-------------10---------|
|-12-9-12-9-12--9-12-------11----11-12-----9-12-9-|
|-----------------------------12------------------|
|-------------------------------------------------|
|-------------------------------------------------|

|-------------------------------------------------|
|--------------------10-12-------------10---------|
|-12-9-12-9-12--9-12-------11----11-12-------9--12|
|-----------------------------12------------------|
|-------------------------------------------------|
|-------------------------------------------------|

|-------------------------------------------------------|
|-----------------------13-15-------------13------------|
|-16-12-16-12-16-12-16--------14----14-16-----14-16--17-|
|--------------------------------16---------------------|
|-------------------------------------------------------|
|-------------------------------------------------------|

|-------------------------------------------------------|
|-----------------------13-15-------------13------------|
|-16-12-16-12-16-12-16--------14----14-16-----12--------|
|--------------------------------16---------------14----|
|-------------------------------------------------------|
|-------------------------------------------------------|

   pm......    ..........   .....................
|-------------------------------------------------|
|-------------------------------------------------|
|-------------------------------------------------|
|-9----------9-------------7--------------5-5-5-5-|
|-7----------7-------------5--------------3-3-3-3-|
|--0-0-0-0-0---0-0-0-0-0-0---0-0-0-0-0-0----------|

   pm.......     ......    ...................
|----------------------------------------------|
|----------------------------------------------|
|----------------------------------------------|
|-5------------5---------7-------------5-5-5-5-|
|-5------------5---------5-------------3-3-3-3-|
|-3-0-0-0-0-0--3-0-0-0-0---0-0-0-0-0-0---------|


|------------------------------------------------------------|
|------------------------------------------------------------|
|---------9-7-----------------------------------------------4|
|---7-10------10-9-7------------------4--4-4-4-4--4--4-4-4--4|
|-9------------------10-9-7-----------4--4-4-4-4--4--4-4-4--2|
|---------------------------10-8-7-0--2--2-2-2-2--2--2-2-2---|

|-----------|
|-----------|
|-----------|
|-----------|
|-2-0-------|
|-----3-0---|

hay partes ke se repiten  no las puse porke pues nomas seria mas bulto, luego le agarran
nomas es kosa de estar trucha





Comments


Popular Mago De Oz tabs & chords
Dame Tu Amor Chords
El Que Quiera Entender Tabs
Hasta Que Tu Muerte Nos Separe Tabs
La Costa Del Silencio Tabs
La Posada De Los Muertos Tabs
La Santa Compaa Tabs
Mi Nombre Es Rock N Roll Tabs
Siempre Adios Dulcinea Part Ii Tabs
Duerme Ukulele
Fiesta Pagana Ukulele


Song lyrics



↑ Back to top | Tablatures and chords are parodies/interpretations of the original songs. You may use it for private study, scholarship, research or language learning purposes only
© 2014 AZChords.com Contact us | Privacy policy | DMCA | Add/correct tabs | Request tabs | Top 50 tabs