>
 >
 >
Sun (Live)

Sun (Live) Guitar Tabs

Mae - Sun (Live) chords, tabs, tablatures, lyrics

Guitar lessons | Add/correct | Request | Top 50 tabs Artists:  A B C D E F G H I J K L M N O P Q R S T U V W X Y Z 0-9

Sun (Live) Guitar Tabs – Mae

CD, Sheet music, Poster

Do you like Sun (Live)? Share with your friends now
Tabs
-------------------------------------------------------------------------------
                             SUN (ACOUSTIC) - Mae
-------------------------------------------------------------------------------

Tuning: Eb (Half Step Down)

This is basically an update of my original tab. It's MUCH more accurate. Basically a few 
additions...
The live version of the song is played a half a step down whereas the other versions are 
in standard...

These are the chords used:

     F#m A2 Esus2 E6  Db  E
eb|---0---0---0---0---0---0---|
Bb|---0---0---0---0---0---0---|
Gb|---2---2---4---6---4---1---|
Db|---4---2---4---6---2---2---|
Ab|---4---0---2---4---4---2---|
Eb|---0---0---0---0---0---0---|


ORDER:

VERSE
CHORUS
FILL
VERSE
CHORUS
FILL
SOLO
CHORUS


VERSE


I'm a mess,  I guess. It's what I've asked for, it's what I've needed.
eb|---------0--------0-----------------0--------------------------/0-------|
Bb|---------0--------0-----------------0--------------------------/0-------|
Gb|---------2--------2-----------------4--------------------------/4-------|
Db|---------4--------2-----------------4--------------------------/6-------|
Ab|---------4--------0-----------------2--------------------------/6-------|
Eb|---------0--------0-----------------0--------------------------/0-------|

Well you know me better than that or at least you did then something...
eb|-------0-----------------------------(0)------------------------------|
Bb|-------0-----------------------------(0)------------------------------|
Gb|-------2-----------------------------(4)------------------------------|
Db|-------4-----------------------------(2)------------------------------|
Ab|-------4-----------------------------(4)------------------------------|
Eb|-------0-----------------------------(0)------------------------------|

happened but once again, well, something's happened.
eb|------------0----------------------------/0--------|
Bb|------------0----------------------------/0--------|
Gb|------------4----------------------------/6--------|
Db|------------4----------------------------/6--------|
Ab|------------2----------------------------/4--------|
Eb|------------0----------------------------/0--------|

The confidence you held in us is the rope we almost hung ourselves with...
eb|--0------------------------------(0)------------------------------------|
Bb|--0------------------------------(0)------------------------------------|
Gb|--2------------------------------(4)------------------------------------|
Db|--4------------------------------(2)------------------------------------|
Ab|--4------------------------------(4)------------------------------------|
Eb|--0------------------------------(0)------------------------------------|

at times I wonder if we really took the steps to break right through it.
eb|--0--------------------------/0----------------------------------------0--|
Bb|--0--------------------------/0----------------------------------------0--|
Gb|--4--------------------------/6----------------------------------------2--|
Db|--4--------------------------/6----------------------------------------4--|
Ab|--2--------------------------/4----------------------------------------4--|
Eb|--0--------------------------/0----------------------------------------0--|

      I know that there were better days but to see the light and to feel...
eb|--0-----------------------------------------------------------------------|
Bb|--0-----------------------------------------------------------------------|
Gb|--4-----------------------------------------------------------------------|
Db|--2-----------------------------------------------------------------------|
Ab|--4-----------------------------------------------------------------------|
Eb|--0-----------------------------------------------------------------------|

the rays, life was always back and forth and we were idling or making..
eb|---------0----------------------------------/0-----------------------|
Bb|---------0----------------------------------/0-----------------------|
Gb|---------4----------------------------------/6-----------------------|
Db|---------4----------------------------------/6-----------------------|
Ab|---------2----------------------------------/4-----------------------|
Eb|---------0----------------------------------/0-----------------------|

         useless... progress...
eb|----0------------------------|
Bb|----0------------------------|
Gb|----2------------------------|
Db|----4------------------------|
Ab|----4------------------------|
Eb|----0------------------------|


CHORUS


    Waiting for the rain to stop.           destination: beautiful.
eb|--0------0---------0---------------x-----0----0-------0---------------x-|
Bb|--0------0---------0---------------x-----0----0-------0---------------x-|
Gb|--2------2---------1---------------x-----2----2-------1---------------x-|
Db|--4------2---------2---------------x-----4----2-------2---------------x-|
Ab|--4------0---------2---------------x-----4----0-------2---------------x-|
Eb|--0------0---------0---------------x-----0----0-------0---------------x-|

    Seems that I'm still waiting for the sun... (Whoah oohhh)
eb|--0---------0---------0-------0-------/0------------0---------x-|
Bb|--0---------0---------0-------0-------/0------------0---------x-|
Gb|--2---------2---------1-------4-------/6------------2---------x-|
Db|--4---------2---------2-------4-------/6------------4---------x-|
Ab|--4---------0---------2-------2-------/4------------4---------x-|
Eb|--0---------0---------0-------0-------/0------------0---------x-|

    Someday will come back to us.       if you're willing let it go.
eb|-0-------0---------0-----------x-----0---------0-------0---------------x|
Bb|-0-------0---------0-----------x-----0---------0-------0---------------x|
Gb|-2-------2---------1-----------x-----2---------2-------1---------------x|
Db|-4-------2---------2-----------x-----4---------2-------2---------------x|
Ab|-4-------0---------2-----------x-----4---------0-------2---------------x|
Eb|-0-------0---------0-----------x-----0---------0-------0---------------x|

    Why won't you just let this be your sun?   (oh oh)
eb|--0--------0--------0------------------/0---------0---|
Bb|--0--------0--------0------------------/0---------0---|
Gb|--2--------2--------1------------------/6---------2---|
Db|--4--------2--------2------------------/6---------4---|
Ab|--4--------0--------2------------------/4---------4---|
Eb|--0--------0--------0------------------/0---------0---|

It seems like yesterday we had the world our way but    some... would say...
eb|------------0--------------------0------------------0---0----------0------|
Bb|------------0--------------------0------------------0---0----------0------|
Gb|------------2--------------------6------------------2---4----------6------|
Db|------------4--------------------6------------------4---2----------6------|
Ab|------------4--------------------4------------------4---4----------4------|
Eb|------------0--------------------0------------------0---0----------0------|


we're headed for destruction...
eb|----0------------------0---------0---------0---------0-|
Bb|----0------------------0---------0---------0---------0-|
Gb|----2------------------4---------4---------4---------4-|
Db|----4-------------4----4----4----4----4----4----4----4-|
Ab|----4-------------2---------2---------2---------2------|
Eb|----0--------------------------------------------------|


FILL


eb|--0--x--0--x--0--x--|
Bb|--0--x--0--x--0--x--|
Gb|--2--x--2--x--2--x--|
Db|--4--x--4--x--4--x--|
Ab|--4--x--4--x--4--x--|
Eb|--0--x--0--x--0--x--|


SOLO


eb|-----------------------------------------------0---|
Bb|-----------------------------------------------0---|
Gb|-----------------------------------------------2---|
Db|---0---4---7---6---2---0---2/4---2-------------4---|
Ab|-------------------------------------0---~4----4---|
Eb|-----------------------------------------------0---|


**Pick through the start of the chorus for the start of the last chorus...


END

**Alternate these chords for the ending...

eb|-------0------0---|
Bb|-------0------0---|
Gb|-------2------6---|
Db|-------4------6---|
Ab|-------4------4---|
Eb|-------0------0---|


**Then pick through these chords twice...

eb|---0---0---0---0---|
Bb|---0---0---0---0---|
Gb|---2---4---4---6---|
Db|---4---2---4---6---|
Ab|---4---4---2---4---|
Eb|---0---0---0---0---|


| /  slide up
| \  slide down
| h  hammer-on
| p  pull-off
| ~  vibrato
| +  harmonic
| x  Mute note
===============================================================================





Comments


Popular Mae tabs & chords
Breakdown Bass Tabs
Ocean Bass Tabs
Someone Else's Arms Bass Tabs
Someone Else's Arms Chords
Tisbury Lane Chords
Brink Of Disaster Tabs
Tisbury Lane 2 Tabs
A Melody The Memory Ukulele
Soundtrack To Our Movie Ukulele
This Is The Countdown Ukulele


Song lyrics



↑ Back to top | Tablatures and chords are parodies/interpretations of the original songs. You may use it for private study, scholarship, research or language learning purposes only
© 2014 AZChords.com Contact us | Privacy policy | DMCA | Add/correct tabs | Request tabs | Top 50 tabs