» » »

Sun Tabs (ver.3)

Artists:  A B C D E F G H I J K L M N O P Q R S T U V W X Y Z # 

Sun Tabs (ver.3)

Mae
Rating:
0/5 (0 votes)

Hard to play? Try these video lessons and learn fast.
                (Acoustic)
-------------------------------------------------------------------------------
-------------------------------------------------------------------------------

Tuning: Standard

This should be relatively fullproof instructions of how to play the acoustic version of
The "FILL" part should be played with the strum pattern of DUDU DUDU DU. Listen to the 
figure out how it all works... Kinda pick through the chords for the ending of the song
the last chorus... Hope you enjoy!


ORDER:

VERSE
CHORUS
FILL
VERSE
CHORUS
FILL
SOLO
CHORUS


VERSE


I'm a mess,  I guess. It's what I've asked for, it's what I've needed.
e|---------0--------0-----------------0--------------------------/0-------|
B|---------0--------0-----------------0--------------------------/0-------|
G|---------2--------4-----------------4--------------------------/4-------|
D|---------4--------2-----------------4--------------------------/6-------|
A|---------4--------4-----------------2--------------------------/6-------|
E|---------0--------0-----------------0--------------------------/0-------|

Well you know me better than that or at least you did then something...
e|-------0------------------------------0------------------------------|
B|-------0------------------------------0------------------------------|
G|-------2------------------------------4------------------------------|
D|-------4------------------------------2------------------------------|
A|-------4------------------------------4------------------------------|
E|-------0------------------------------0------------------------------|

happened but once again, well, something's happened.
e|------------0----------------------------/0--------|
B|------------0----------------------------/0--------|
G|------------4----------------------------/6--------|
D|------------4----------------------------/6--------|
A|------------2----------------------------/4--------|
E|------------0----------------------------/0--------|

The confidence you held in us is the rope we almost hung ourselves with...
e|--0--------------------------------0------------------------------------|
B|--0--------------------------------0------------------------------------|
G|--2--------------------------------4------------------------------------|
D|--4--------------------------------2------------------------------------|
A|--4--------------------------------4------------------------------------|
E|--0--------------------------------0------------------------------------|

at times I wonder if we really took the steps to break right through it.
e|--0--------------------------/0----------------------------------------0--|
B|--0--------------------------/0----------------------------------------0--|
G|--4--------------------------/6----------------------------------------2--|
D|--4--------------------------/6----------------------------------------4--|
A|--2--------------------------/4----------------------------------------4--|
E|--0--------------------------/0----------------------------------------0--|

      I know that there were better days but to see the light and to feel...
e|--0-----------------------------------------------------------------------|
B|--0-----------------------------------------------------------------------|
G|--4-----------------------------------------------------------------------|
D|--2-----------------------------------------------------------------------|
A|--4-----------------------------------------------------------------------|
E|--0-----------------------------------------------------------------------|

the rays, life was always back and forth and we were idling or making..
e|---------0----------------------------------/0-----------------------|
B|---------0----------------------------------/0-----------------------|
G|---------4----------------------------------/6-----------------------|
D|---------4----------------------------------/6-----------------------|
A|---------2----------------------------------/4-----------------------|
E|---------0----------------------------------/0-----------------------|

         useless... progress...
e|----0------------------------|
B|----0------------------------|
G|----2------------------------|
D|----4------------------------|
A|----4------------------------|
E|----0------------------------|


CHORUS


    Waiting for the rain to stop.           destination: beautiful.
e|--0---------------0---------------x-------0------------0------------x-|
B|--0---------------0---------------x-------0------------0------------x-|
G|--2---------------4---------------x-------2------------4------------x-|
D|--4---------------4---------------x-------4------------4------------x-|
A|--4---------------2---------------x-------4------------2------------x-|
E|--0---------------0---------------x-------0------------0------------x-|

    Seems that I'm still waiting for the sun... (Whoah oohhh)
e|--0--------------------0---------------/0------------0---------x-|
B|--0--------------------0---------------/0------------0---------x-|
G|--2--------------------4---------------/6------------2---------x-|
D|--4--------------------4---------------/6------------4---------x-|
A|--4--------------------2---------------/4------------4---------x-|
E|--0--------------------0---------------/0------------0---------x-|

    Someday will come back to us.          if you're willing let it it go.
e|--0-----------------0------------x-------0-----------------0-------------x|
B|--0-----------------0------------x-------0-----------------0-------------x|
G|--2-----------------4------------x-------2-----------------4-------------x|
D|--4-----------------4------------x-------4-----------------4-------------x|
A|--4-----------------2------------x-------4-----------------2-------------x|
E|--0-----------------0------------x-------0-----------------0-------------x|

    Why won't you just let this be your sun?   (oh oh)
e|--0------------------0----------------/0---------0---|
B|--0------------------0----------------/0---------0---|
G|--2------------------4----------------/6---------2---|
D|--4------------------4----------------/6---------4---|
A|--4------------------2----------------/4---------4---|
E|--0------------------0----------------/0---------0---|

It seems like yesterday we had the world our way but    some... would say...
e|------------0--------------------0------------------0---0----------0------|
B|------------0--------------------0------------------0---0----------0------|
G|------------2--------------------6------------------2---4----------6------|
D|------------4--------------------6------------------4---2----------6------|
A|------------4--------------------4------------------4---4----------4------|
E|------------0--------------------0------------------0---0----------0------|


we're headed for destruction...
e|----0------------------0---------0---------0---------0-|
B|----0------------------0---------0---------0---------0-|
G|----2------------------4---------4---------4---------4-|
D|----4-------------4----4----4----4----4----4----4----4-|
A|----4-------------2---------2---------2---------2------|
E|----0--------------------------------------------------|


FILL


e|--0--x--0--x--0--x--|
B|--0--x--0--x--0--x--|
G|--2--x--2--x--2--x--|
D|--4--x--4--x--4--x--|
A|--4--x--4--x--4--x--|
E|--0--x--0--x--0--x--|


SOLO


e|-----------------------------------------------0---|
B|-----------------------------------------------0---|
G|-----------------------------------------------2---|
D|---0---4---7---6---2---0---2/4---2-------------4---|
A|-------------------------------------0---~4----4---|
E|-----------------------------------------------0---|

| /  slide up
| \  slide down
| h  hammer-on
| p  pull-off
| ~  vibrato
| +  harmonic
| x  Mute note
===============================================================================
            
Hard to play? Try these video lessons and learn fast. | Correct




comments powered by Disqus
↑ Back to top | Tablatures and chords are parodies/interpretations of the original songs. You may use it for private study, scholarship, research or language learning purposes only