>
 >
 >
Anything 2

Anything 2 Guitar Tabs

Mae - Anything 2 chords, tabs, tablatures, lyrics

Guitar lessons | Add/correct | Request | Top 50 tabs Artists:  A B C D E F G H I J K L M N O P Q R S T U V W X Y Z 0-9

Anything 2 Guitar Tabs – Mae

CD, Sheet music, Poster

Do you like Anything 2? Share with your friends now
ChordsTabsTabs v2Tabs v3Ukulele
-------------------------------------------------------------------------------
                             Anything - Mae
-------------------------------------------------------------------------------

Tuning: Drop D - D,a,d,g,b,e

INTRO

Guitar 1

e|-------------13-------------------------13---13---13---------------------|
B|--15-------------------------15-------------------------(15second time)--|
G|----12-14-15-----12-14-15-15----12-14-15---15---15---15------------------|
D|-------------------------------------------------------------------------|
A|-------------------------------------------------------------------------|
E|-------------------------------------------------------------------------|

(x2)

Guitar 2

e|-------------------------------------------------|
B|-------------------------------------------------|
G|-------------------------------------------------|
D|---1111111111111111111111111--------5-5-----8-8--|
A|---1111111111111111111111111--------5-5-----8-8--|
E|---1111111111111111111111111--------5-5-----8-8--|

x4

VERSE

Guitar 1

e|----13---------------13--------------13----------13--10------------------------------|
B|-------------------------------------------------------------------------------------|
G|-------------------------------------------------------------------------------------|
D|-------------------------------------------------------------------------------------|
A|-------------------------------------------------------------------------------------|
E|-------------------------------------------------------------------------------------|

(x4)

Guitar 2 - Comes in after guitar 1 has gone through x2

e|-----------------------------------------------------------------------------------|
B|--------3--------------------------------------------------------------------------|
G|----3-5---5-3------3-2-------------------------------------------------------------|
D|-----------------------3-------1---------------------------------------------------|
A|-----------------------------------------------------------------------------------|
E|-----------------------------------------------------------------------------------|

Guitar 1

e|---------------------------------------------------------------------------------|
B|------------------1--------------------------------------------------------------|
G|--------------5---3--------------------------------------------------------------|
D|-------5------5---3-------------------------------5-5----8-8---------------------|
A|-------5------3---1-------------------------------5-5----8-8---------------------|
E|-------5------3-----------------------------------5-5----8-8---------------------|

CHORUS

Guitar 1

e|---------------------------------------------------------------------------|
B|---------------------------------------------------------------------------|
G|---------------------------------------------------------------------------|
D|-----1111111111111111111111------5-5-----8-8-------------------------------|
A|-----1111111111111111111111------5-5-----8-8-------------------------------|
E|-----1111111111111111111111------5-5-----8-8-------------------------------|

(x4)

Guitar 2

e|---------------------------------------------------------|
B|---------------------------------------------------------|
G|-----10101010/8-771010-3-10101010/877--------------------|
D|---------------------------------------------5-5----8-8--|
A|--------8-888/6-55-8-8-1---8-888/6-55--------5-5----8-8--|
E|---------------------------------------------5-5----8-8--|

e|--------------------------------------------------------|
B|--------------------------------------------------------|
G|----10-101010/8771010-3----3-5-7-5/3-2------------------|
D|-------------------------------------------5-5-----8-8--|
A|-------8-888/6-55-8-8-1----1-3-5-3/1-0-----5-5-----8-8--|
E|-------------------------------------------5-5-----8-8--|

VERSE

CHORUS

BRIDGE

Guitar 1

e|----------------------------------------------------------|
B|----------------------------------------------------------|
G|----------------------------------------------------------|
D|---666666666-8888888888-1010101010101010-666666666666666--|
A|---666666666-8888888888-1010101010101010-666666666666666--|
E|---666666666-8888888888-1010101010101010-666666666666666--|

Guitar 2 - Some solo(ish) thing over the top.

CHORUS (Guitar 2 only)

CHORUS (Both)

OUTRO - Same as Intro

| /  slide up
| \  slide down
| h  hammer-on
| p  pull-off
| ~  vibrato
| +  harmonic
| x  Mute note
===============================================================================





Comments


Popular Mae tabs & chords
Anything Chords
Just Let Go Chords
Sleepwell Chords
Falling Into You Tabs
Prologue Transcribed For Guitar Tabs
Tisbury Lane 2 Tabs
Two Birds 1 Tabs
Just Let Go Ukulele
On Top Ukulele
Where The Falls Begin Ukulele


Song lyrics



↑ Back to top | Tablatures and chords are parodies/interpretations of the original songs. You may use it for private study, scholarship, research or language learning purposes only
© 2014 AZChords.com Contact us | Privacy policy | DMCA | Add/correct tabs | Request tabs | Top 50 tabs