>
 >
 >
Anything

Anything Guitar Tabs

Mae - Anything chords, tabs, tablatures, lyrics

Guitar lessons | Add/correct | Request | Top 50 tabs Artists:  A B C D E F G H I J K L M N O P Q R S T U V W X Y Z 0-9

Anything Guitar Tabs – Mae

CD, Sheet music, Poster

Do you like Anything? Share with your friends now
ChordsTabsTabs v2Tabs v3Ukulele

 

 

Gtr I (Eb Ab Db Gb Bb Eb) - 'Untitled'
Gtr II (Eb Ab Db Gb Bb Eb) - 'Untitled'
Gtr III (Eb Ab Db Gb Bb Eb) - 'Untitled'
Gtr IV (Eb Ab Db Gb Bb Eb) - 'Untitled'
Gtr V (Eb Ab Db Gb Bb Eb) - 'Untitled'
Gtr VI (Eb Ab Db Gb Bb Eb) - 'Untitled'


 Intro
  Q=80
  E5
 4/4
  Gtr VI
   E  E    E  S  S  +S   E    S  +S   S  S  S
|-11\-----------14-(14)\----------------------|
|-----9---11-12----------9---11-(11)-12-12-12-|
|---------------------------------------------|
|---------------------------------------------|
|---------------------------------------------|
|---------------------------------------------|
|
| Gtr II
|  E  S S  E  S  S  +S   S E      S   S  S  S
|---------------------------------------------|
|--7--7-7--7--7--7--(7)--7-7------7---7--7--7-|
|--8--8-8--8--8--8--(8)--8-8------8---8--8--8-|
|--6--6-6--6--6--6--(6)--6-6------6---6--6--6-|
|--7--7-7--7--7--7--(7)--7-7------7---7--7--7-|
|--0--0-0--0--0--0--(0)--0-0------0---0--0--0-|


                           G#5        B5
   E  E    E  S  S  +S   S  E  S  E    S
|-11\-----------14-(14)----14----14------|
|-----9---11-12---------12----12------12-|
|----------------------------------------|
|----------------------------------------|
|----------------------------------------|
|----------------------------------------|
|
|  E  S S  E  S  S   S   S  E  S  S E
|----------------------------------------|
|--7--7-7--7--7--7-----------------------|
|--8--8-8--8--8--8-------------x--4-4----|
|--6--6-6--6--6--6---x---6--6--x--4-4----|
|--7--7-7--7--7--7---x---6--6--x--2-2----|
|--0--0-0--0--0--0---x---4--4------------|


  E5
   E  E    E  S  S  +S   E    S  +S   S  S  S
|-11\-----------14-(14)\----------------------|
|-----9---11-12----------9---11-(11)-12-12-12-|
|---------------------------------------------|
|---------------------------------------------|
|---------------------------------------------|
|---------------------------------------------|
|
|  E  S S  E  S  S  +S   S E      S   S  S  S
|---------------------------------------------|
|--7--7-7--7--7--7--(7)--7-7------7---7--7--7-|
|--8--8-8--8--8--8--(8)--8-8------8---8--8--8-|
|--6--6-6--6--6--6--(6)--6-6------6---6--6--6-|
|--7--7-7--7--7--7--(7)--7-7------7---7--7--7-|
|--0--0-0--0--0--0--(0)--0-0------0---0--0--0-|


                                 F#5B5
   E  E    E  S  S  +S   S  E  S  E    S
|-11\-----------14-(14)----14----14------||
|-----9---11-12---------12----12------12-||
|----------------------------------------||
|----------------------------------------||
|----------------------------------------||
|----------------------------------------||
|
|  E  S S  E  S  S   S   S  E  S  S E
|----------------------------------------||
|--7--7-7--7--7--7-----------------------||
|--8--8-8--8--8--8-------------x--4-4----||
|--6--6-6--6--6--6---x---4--4--x--4-4----||
|--7--7-7--7--7--7---x---4--4--x--2-2----||
|--0--0-0--0--0--0---x---2--2------------||


 Verse
  $
  N.C.
   >
   W                             W
|-11---------------------------|---------------------------|
|------------------------------|---------------------------|
|------------------------------|---------------------------|
|------------------------------|---------------------------|
|------------------------------|---------------------------|
|------------------------------|---------------------------|
|
| Gtrs III, V
|  E E E S S +S  E S +S  S S S   E E E S S S S S S S S S S
|--2-------2-(2)---------------|-2-------2-------2---------|
|----0---0-------0-------0---0-|---0---0-----4-------0---0-|
|------3-----------3-(3)---3---|-----3---------4-------3---|
|------------------------------|---------------------------|
|------------------------------|---------------------------|
|------------------------------|---------------------------|


  Gtrs III, V
  E E E S S +S  E S +S  S S S   E E E S S S S S S S S S S
|-2-------2-(2)---------------|-2-------2-------2---------|
|---0---0-------0-------0---0-|---0---0-----4-------0---0-|
|-----3-----------3-(3)---3---|-----3---------4-------3---|
|-----------------------------|---------------------------|
|-----------------------------|---------------------------|
|-----------------------------|---------------------------|


  Gtr V
   E E E   S S +S  E S +S  S S S    E  E    E  S S +S  E S +S  S S S
|--2---------2-(2)---------------|--2------------2-(2)----------------|
|----0-----0-------0-------0---0-|-----0-------0-------0-------0---0--|
|------3-------------3-(3)---3---|----------3------------3-(3)---3----|
|--------------------------------|------------------------------------|
|--------------------------------|------------------------------------|
|--------------------------------|------------------------------------|
|
| Gtr III
|  E E S E   S +H                   E.   S +E  E   +H
|-^2-----------------------------|-^2---------------------------------|
|-^0-2-4-2---0-(0)---------------|-^2----0-(0)------------------------|
|--------------------------------|------------------------------------|
|--------------------------------|-------------4---(4)----------------|
|--------------------------------|------------------------------------|
|--------------------------------|------------------------------------|


                                B5/A#   B     B5
  E E E S S +S  E S +S  S S S    H    S S E S S E
|-2-------2-(2)---------------|-^2------------2---|
|---0---0-------0-------0---0-|-^0------4-----0---|
|-----3-----------3-(3)---3---|-^3------4---------|
|-----------------------------|-------------------|
|-----------------------------|-------------------|
|-----------------------------|-------------------|
|
| Q   E S S +H                   W
|---------2-(2)---------------|-------------------|
|-------0---------------------|-------------------|
|-----------------------------|-------------------|
|-----------------------------|-------------------|
|-----------------------------|-------------------|
|-----------------------------|-------------------|


  B5/E                 F#5   B5
                     Gtrs II, VI
   W          +H     S S E S S E
|-^2--------|-(2)----------------||
|-^0--------|-(0)----------------||
|-----------|--------------x-4-4-||
|-^2--------|-(2)----x-4-4-x-4-4-||
|-----------|--------x-4-4-x-2-2-||
|-----------|--------x-2-2-------||


   Chorus
    E5
    Gtr VI
    S  S  S  S  S S S S +S   E    S  +S  S S S
||---------------------------------------------|
||o--------------------------------------------|
||--9-11-11-11-11-9-8-8-(8)-11---11-(11)-4-4-4-|
||---------------------------------------------|
||o-7--9--9--9--9-7-6-6-(6)--9----9--(9)-2-2-2-|
||---------------------------------------------|
|
|   Gtr II
|   E     S  S  E   S S +S   S E      S  S S S
||---------------------------------------------|
||o--------------------------------------------|
||---------------------------------------------|
||--2-----2--2--2---2-2-(2)--2-2------2--2-2-2-|
||o-2-----2--2--2---2-2-(2)--2-2------2--2-2-2-|
||--0-----0--0--0---0-0-(0)--0-0------0--0-0-0-|
|
|     Gtr IV
|   W
||---------------------------------------------|
||o--------------------------------------------|
||---------------------------------------------|
||---------------------------------------------|
||o--------------------------------------------|
||---------------------------------------------|


                        G#5   B5
  S  S  S  S  S S S S S S E S S E
|---------------------------------|
|---------------------------------|
|-9-11-11-11-11-9-8-8-------x-4-4-|
|---------------------x-6-6-x-4-4-|
|-7--9--9--9--9-7-6-6-x-6-6-x-2-2-|
|---------------------x-4-4-------|
|
| E     S  S  E   S S S S E S S E
|---------------------------------|
|---------------------------------|
|---------------------------x-4-4-|
|-2-----2--2--2---2-2-x-6-6-x-4-4-|
|-2-----2--2--2---2-2-x-6-6-x-2-2-|
|-0-----0--0--0---0-0-x-4-4-------|
|
| H                   Q     Q
|---------------------6-----------|
|---------------------------7-----|
|---------------------------------|
|---------------------------------|
|---------------------------------|
|---------------------------------|


  E5
  S  S  S  S  S S S S +S   E    S  +S  S S S
|--------------------------------------------|
|--------------------------------------------|
|-9-11-11-11-11-9-8-8-(8)-11---11-(11)-4-4-4-|
|--------------------------------------------|
|-7--9--9--9--9-7-6-6-(6)--9----9--(9)-2-2-2-|
|--------------------------------------------|
|
| E     S  S  E   S S +S   S E      S  S S S
|--------------------------------------------|
|--------------------------------------------|
|--------------------------------------------|
|-2-----2--2--2---2-2-(2)--2-2------2--2-2-2-|
|-2-----2--2--2---2-2-(2)--2-2------2--2-2-2-|
|-0-----0--0--0---0-0-(0)--0-0------0--0-0-0-|
|
| W
|--------------------------------------------|
|--------------------------------------------|
|--------------------------------------------|
|--------------------------------------------|
|--------------------------------------------|
|--------------------------------------------|


                           D.S.
                      F#5    B5
  +S  S E   S S E   S S E  S S E
|----------------------------------||
|---------------------------------o||
|-(4)-6-8---6-4-3----------x-4-4---||
|-------------------x-4-4--x-4-4---||
|-(2)-4-6---4-2-1---x-4-4--x-2-2--o||
|-------------------x-2-2----------||
|
|  E    S S E   S S S S E  S S E
|----------------------------------||
|---------------------------------o||
|--------------------------x-4-4---||
|--2----2-2-2---2-2-x-4-4--x-4-4---||
|--2----2-2-2---2-2-x-4-4--x-2-2--o||
|--0----0-0-0---0-0-x-2-2----------||
|
|  H                Q      Q
|-------------------9-----11-------||
|---------------------------------o||
|----------------------------------||
|----------------------------------||
|---------------------------------o||
|----------------------------------||


 Bridge
  A5
   E  S  S  S  S  S  S  +S   E    S  +S   S  S  S
|-------------------12-(12)-----------------------|
|-10-10-10-10-10-10---------12---10-(10)-10-12-10-|
|-------------------------------------------------|
|-------------------------------------------------|
|-------------------------------------------------|
|-------------------------------------------------|
|
|  E  S  S  E     S  S  +S   S E      S   S  S  S
|-------------------------------------------------|
|-------------------------------------------------|
|-------------------------------------------------|
|--7--7--7--7-----7--7--(7)--7-7------7---7--7--7-|
|--7--7--7--7-----7--7--(7)--7-7------7---7--7--7-|
|--5--5--5--5-----5--5--(5)--5-5------5---5--5--5-|


  B5
   S  S  S  S  S  S  S  S  +S   E    S  +S   S  S  S
|----------------------12-(12)-11--------------------|
|-10-12-12-12-12-12-12--------------12-(12)-12-12-12-|
|----------------------------------------------------|
|----------------------------------------------------|
|----------------------------------------------------|
|----------------------------------------------------|
|
|  E     S  S  E     S  S  +S   S E      S   S  S  S
|----------------------------------------------------|
|----------------------------------------------------|
|----------------------------------------------------|
|--9-----9--9--9-----9--9--(9)--9-9------9---9--9--9-|
|--9-----9--9--9-----9--9--(9)--9-9------9---9--9--9-|
|--7-----7--7--7-----7--7--(7)--7-7------7---7--7--7-|


  D5
   E  S  S  S  S  S  S  +S   E    S  +S   S  S  S
|-------------------12-(12)-----------------------|
|-10-10-10-10-10-10---------12---10-(10)-10-12-10-|
|-------------------------------------------------|
|-------------------------------------------------|
|-------------------------------------------------|
|-------------------------------------------------|
|
|  E  S  S  E     S  S  +S   S E      S   S  S  S
|-------------------------------------------------|
|-------------------------------------------------|
|--7--7--7--7-----7--7--(7)--7-7------7---7--7--7-|
|--7--7--7--7-----7--7--(7)--7-7------7---7--7--7-|
|--5--5--5--5-----5--5--(5)--5-5------5---5--5--5-|
|-------------------------------------------------|


  A5
   E  S  S  S  S  S  S  +S   E    S  +S   S  S  S
|-------------------12-(12)------------------------||
|-10-10-10-10-10-10---------12---10-(10)-10-12-10--||
|--------------------------------------------------||
|--------------------------------------------------||
|--------------------------------------------------||
|--------------------------------------------------||
|
|  E  S  S  E     S  S  +S   S E      S   S  S  S
|--------------------------------------------------||
|--------------------------------------------------||
|--------------------------------------------------||
|--7--7--7--7-----7--7--(7)--7-7------7---7--7--7--||
|--7--7--7--7-----7--7--(7)--7-7------7---7--7--7--||
|--5--5--5--5-----5--5--(5)--5-5------5---5--5--5--||


 Breakdown
  E5
   S  S  S  S  S S S S +S   E    S  +S  S S S
|---------------------------------------------|
|---------------------------------------------|
|--9-11-11-11-11-9-8-8-(8)-11---11-(11)-4-4-4-|
|---------------------------------------------|
|--7--9--9--9--9-7-6-6-(6)--9----9--(9)-2-2-2-|
|---------------------------------------------|
|
|  E     S  S  E   S S +S   S E      S  S S S
|---------------------------------------------|
|---------------------------------------------|
|---------------------------------------------|
|--2-----2--2--2---2-2-(2)--2-2------2--2-2-2-|
|--2-----2--2--2---2-2-(2)--2-2------2--2-2-2-|
|--0-----0--0--0---0-0-(0)--0-0------0--0-0-0-|
|
| Gtr V
|  Q           Q        Q            Q
|-14------------------------------------------|
|-----------------------------------12--------|
|-------------13-------15---------------------|
|---------------------------------------------|
|---------------------------------------------|
|---------------------------------------------|


                          G#5    B5
   S  S  S  S  S S S S  S S E  S S E
|-------------------------------------|
|-------------------------------------|
|--9-11-11-11-11-9-8-8---------x-4-4--|
|-----------------------x-6-6--x-4-4--|
|--7--9--9--9--9-7-6-6--x-6-6--x-2-2--|
|-----------------------x-4-4---------|
|
|  E     S  S  E   S S  S S E  S S E
|-------------------------------------|
|-------------------------------------|
|------------------------------x-4-4--|
|--2-----2--2--2---2-2--x-6-6--x-4-4--|
|--2-----2--2--2---2-2--x-6-6--x-2-2--|
|--0-----0--0--0---0-0--x-4-4---------|
|
|  Q           Q        Q      Q
|-14----------------------------------|
|-----------------------------12------|
|-------------13-------15-------------|
|-------------------------------------|
|-------------------------------------|
|-------------------------------------|


  E5
                                                                    >
   S  S  S  S  S S S S +S   E    S  +S  S S S   +S  S E    S S E    H
|---------------------------------------------|----------------------------|
|---------------------------------------------|----------------------------|
|--9-11-11-11-11-9-8-8-(8)-11---11-(11)-4-4-4-|-(4)-6-8----6-4-3-----------|
|---------------------------------------------|---------------------6------|
|--7--9--9--9--9-7-6-6-(6)--9----9--(9)-2-2-2-|-(2)-4-6----4-2-1-----------|
|---------------------------------------------|---------------------4------|
|
|  E     S  S  E   S S +S   S E      S  S S S    E    S S  E   S S  H
|---------------------------------------------|----------------------------|
|---------------------------------------------|----------------------------|
|---------------------------------------------|----------------------------|
|--2-----2--2--2---2-2-(2)--2-2------2--2-2-2-|--2----2-2--2---2-2---------|
|--2-----2--2--2---2-2-(2)--2-2------2--2-2-2-|--2----2-2--2---2-2---------|
|--0-----0--0--0---0-0-(0)--0-0------0--0-0-0-|--0----0-0--0---0-0---------|
|
|  Q           Q        Q            Q           Q         Q        Q   Q
|-14------------------------------------------|-14-------------------------|
|-----------------------------------12--------|------------------------12--|
|-------------13-------15---------------------|-----------13-------15------|
|---------------------------------------------|----------------------------|
|---------------------------------------------|----------------------------|
|---------------------------------------------|----------------------------|


   Interlude
    B/E
     >
     W          +W
||--^2--------|-(2)-----||
||o-^4--------|-(4)----o||
||--^4--------|-(4)-----||
||--^2--------|-(2)-----||
||o-----------|--------o||
||------------|---------||


                                    <
  S S S S S S S S S S S S S S S S   S S S S S S S S S S S S S S S S
|-2-2-2-2-2-2-2-2-2-2-2-2-2-2-2-2-|-2-2-2-2-2-2-2-2-2-2-2-2-2-2-2-2-||
|-4-4-4-4-4-4-4-4-4-4-4-4-4-4-4-4-|-4-4-4-4-4-4-4-4-4-4-4-4-4-4-4-4-||
|-4-4-4-4-4-4-4-4-4-4-4-4-4-4-4-4-|-4-4-4-4-4-4-4-4-4-4-4-4-4-4-4-4-||
|-2-2-2-2-2-2-2-2-2-2-2-2-2-2-2-2-|-2-2-2-2-2-2-2-2-2-2-2-2-2-2-2-2-||
|---------------------------------|---------------------------------||
|---------------------------------|---------------------------------||


 Out-Chorus
  Esus2                                                       Eadd9/B5
  Gtr I
  E S S E   S S +S  S E    S  S S S    E    S S  E    S S  S  S E S S  E
|-----------------------------------|----------------------------------------|
|-----------------------------------|----------------------------------------|
|-4-4-4-4---4-4-(4)-4-4----4--4-4-4-|--4----4-4--4----4-4--x--4-4-x-4--4-----|
|-2-2-2-2---2-2-(2)-2-2----2--2-2-2-|--2----2-2--2----2-2--x--6-6-x-4--4-----|
|-2-2-2-2---2-2-(2)-2-2----2--2-2-2-|--2----2-2--2----2-2--x--6-6-x-2--2-----|
|-0-0-0-0---0-0-(0)-0-0----0--0-0-0-|--0----0-0--0----0-0--x--4-4------------|
|
| Gtr II
| >
| W                                   +W
|-----------------------------------|----------------------------------------|
|-----------------------------------|----------------------------------------|
|-----------------------------------|----------------------------------------|
|-2---------------------------------|-(2)------------------------------------|
|-2---------------------------------|-(2)------------------------------------|
|-0---------------------------------|-(0)------------------------------------|
|
| Gtr V
| E E   S S S S +S  E   S +S  S S S   +S  S S S +S  S S S +Q.         +S  S
|-----------------------------------|----------------------------------------|
|-7-7---7-5-4-4-(4)-7---7-(7)-7-7-7-|-(7)-7-7-7-(7)-5-4-4-(4)---------(4)----|
|-----------------------------------|-------------------------------------4--|
|-----------------------------------|----------------------------------------|
|-----------------------------------|----------------------------------------|
|-----------------------------------|----------------------------------------|


  Esus2                                                     F#5    B5
                                                        Gtrs II, VI
  E S S E   S S +S  S E    S  S S S    E    S S E   S S  S  S E  S S E
|-----------------------------------|----------------------------------||
|-----------------------------------|----------------------------------||
|-4-4-4-4---4-4-(4)-4-4----4--4-4-4-|--4----4-4-4---4-4----------x-4-4-||
|-2-2-2-2---2-2-(2)-2-2----2--2-2-2-|--2----2-2-2---2-2--x--4-4--x-4-4-||
|-2-2-2-2---2-2-(2)-2-2----2--2-2-2-|--2----2-2-2---2-2--x--4-4--x-2-2-||
|-0-0-0-0---0-0-(0)-0-0----0--0-0-0-|--0----0-0-0---0-0--x--2-2--------||
|
| Gtr V
| E E   S S S S +S  E   S +S  S S S   +S  S E   S S S S +H
|-----------------------------------|----------------------------------||
|-7-7---7-5-4-4-(4)-7---7-(7)-------|-------4--------------------------||
|-----------------------------4-4-4-|-(4)-6-----6-4-3------------------||
|-----------------------------------|-----------------6-(6)------------||
|-----------------------------------|----------------------------------||
|-----------------------------------|----------------------------------||
|
| Gtr IV
| W                                    H                 Q       Q
|-----------------------------------|--------------------9------11-----||
|-----------------------------------|----------------------------------||
|-----------------------------------|----------------------------------||
|-----------------------------------|----------------------------------||
|-----------------------------------|----------------------------------||
|-----------------------------------|----------------------------------||


    E5
    Gtr VI
    S  S  S  S  S S S S +S   E    S  +S  S S S
||---------------------------------------------|
||o--------------------------------------------|
||--9-11-11-11-11-9-8-8-(8)-11---11-(11)-4-4-4-|
||---------------------------------------------|
||o-7--9--9--9--9-7-6-6-(6)--9----9--(9)-2-2-2-|
||---------------------------------------------|
|
|   Gtr II
|   E     S  S  E   S S +S   S E      S  S S S
||---------------------------------------------|
||o--------------------------------------------|
||---------------------------------------------|
||--2-----2--2--2---2-2-(2)--2-2------2--2-2-2-|
||o-2-----2--2--2---2-2-(2)--2-2------2--2-2-2-|
||--0-----0--0--0---0-0-(0)--0-0------0--0-0-0-|
|
|   Gtr IV
|   W
||---------------------------------------------|
||o--------------------------------------------|
||---------------------------------------------|
||---------------------------------------------|
||o--------------------------------------------|
||---------------------------------------------|


                        G#5   B5
  S  S  S  S  S S S S S S E S S E
|---------------------------------|
|---------------------------------|
|-9-11-11-11-11-9-8-8-------x-4-4-|
|---------------------x-6-6-x-4-4-|
|-7--9--9--9--9-7-6-6-x-6-6-x-2-2-|
|---------------------x-4-4-------|
|
| E     S  S  E   S S S S E S S E
|---------------------------------|
|---------------------------------|
|---------------------------x-4-4-|
|-2-----2--2--2---2-2-x-6-6-x-4-4-|
|-2-----2--2--2---2-2-x-6-6-x-2-2-|
|-0-----0--0--0---0-0-x-4-4-------|
|
| H                   Q     Q
|---------------------6-----------|
|---------------------------7-----|
|---------------------------------|
|---------------------------------|
|---------------------------------|
|---------------------------------|


  1.
  E5
  S  S  S  S  S S S S +S   E    S  +S  S S S
|--------------------------------------------|
|--------------------------------------------|
|-9-11-11-11-11-9-8-8-(8)-11---11-(11)-4-4-4-|
|--------------------------------------------|
|-7--9--9--9--9-7-6-6-(6)--9----9--(9)-2-2-2-|
|--------------------------------------------|
|
| E     S  S  E   S S +S   S E      S  S S S
|--------------------------------------------|
|--------------------------------------------|
|--------------------------------------------|
|-2-----2--2--2---2-2-(2)--2-2------2--2-2-2-|
|-2-----2--2--2---2-2-(2)--2-2------2--2-2-2-|
|-0-----0--0--0---0-0-(0)--0-0------0--0-0-0-|
|
| W
|--------------------------------------------|
|--------------------------------------------|
|--------------------------------------------|
|--------------------------------------------|
|--------------------------------------------|
|--------------------------------------------|


                      F#5    B5
  +S  S E   S S E   S S E  S S E
|----------------------------------||
|---------------------------------o||
|-(4)-6-8---6-4-3----------x-4-4---||
|-------------------x-4-4--x-4-4---||
|-(2)-4-6---4-2-1---x-4-4--x-2-2--o||
|-------------------x-2-2----------||
|
|  E    S S E   S S S S E  S S E
|----------------------------------||
|---------------------------------o||
|--------------------------x-4-4---||
|--2----2-2-2---2-2-x-4-4--x-4-4---||
|--2----2-2-2---2-2-x-4-4--x-2-2--o||
|--0----0-0-0---0-0-x-2-2----------||
|
|  H                Q      Q
|-------------------9-----11-------||
|---------------------------------o||
|----------------------------------||
|----------------------------------||
|---------------------------------o||
|----------------------------------||


  2.
  E5
  S  S  S  S  S S S S +S   E    S  +S  S S S
|--------------------------------------------|
|--------------------------------------------|
|-9-11-11-11-11-9-8-8-(8)-11---11-(11)-4-4-4-|
|--------------------------------------------|
|-7--9--9--9--9-7-6-6-(6)--9----9--(9)-2-2-2-|
|--------------------------------------------|
|
| E     S  S  E   S S +S   S E      S  S S S
|--------------------------------------------|
|--------------------------------------------|
|--------------------------------------------|
|-2-----2--2--2---2-2-(2)--2-2------2--2-2-2-|
|-2-----2--2--2---2-2-(2)--2-2------2--2-2-2-|
|-0-----0--0--0---0-0-(0)--0-0------0--0-0-0-|
|
| W
|--------------------------------------------|
|--------------------------------------------|
|--------------------------------------------|
|--------------------------------------------|
|--------------------------------------------|
|--------------------------------------------|


  +S  S E   S S E    S  E.      S S E
|---------------------------------------||
|---------------------------------------||
|-(4)-6-8---6-4-3---11-13-------8-9-8---||
|---------------------------------------||
|-(2)-4-6---4-2-1----9-11-------6-7-6---||
|---------------------------------------||
|
|  E    S S E   S S  S  S  S S  S S S S
|---------------------------------------||
|---------------------------------------||
|---------------------------------------||
|--2----2-2-2---2-2--x--x--x-x--x-x-x-x-||
|--2----2-2-2---2-2--x--x--x-x--x-x-x-x-||
|--0----0-0-0---0-0--x--x--x-x--x-x-x-x-||
|
|  H                 Q          Q
|--------------------9---------11-------||
|---------------------------------------||
|---------------------------------------||
|---------------------------------------||
|---------------------------------------||
|---------------------------------------||


 Outro
  E5
   E  E    E  S  S  +S   E    S  +S   S  S  S
|-11\-----------14-(14)\----------------------|
|-----9---11-12----------9---11-(11)-12-12-12-|
|---------------------------------------------|
|---------------------------------------------|
|---------------------------------------------|
|---------------------------------------------|
|
|  E  S S  E  S  S  +S   S E      S   S  S  S
|---------------------------------------------|
|--7--7-7--7--7--7--(7)--7-7------7---7--7--7-|
|--8--8-8--8--8--8--(8)--8-8------8---8--8--8-|
|--6--6-6--6--6--6--(6)--6-6------6---6--6--6-|
|--7--7-7--7--7--7--(7)--7-7------7---7--7--7-|
|--0--0-0--0--0--0--(0)--0-0------0---0--0--0-|


                           G#5        B5
   E  E    E  S  S  +S   S  E  S  E    S
|-11\-----------14-(14)----14----14------|
|-----9---11-12---------12----12------12-|
|----------------------------------------|
|----------------------------------------|
|----------------------------------------|
|----------------------------------------|
|
|  E  S S  E  S  S   S   S  E  S  S E
|----------------------------------------|
|--7--7-7--7--7--7-----------------------|
|--8--8-8--8--8--8-------------x--4-4----|
|--6--6-6--6--6--6---x---6--6--x--4-4----|
|--7--7-7--7--7--7---x---6--6--x--2-2----|
|--0--0-0--0--0--0---x---4--4------------|


  E5
   E  E    E  S  S  +S   E    S  +S   S  S  S
|-11\-----------14-(14)\----------------------|
|-----9---11-12----------9---11-(11)-12-12-12-|
|---------------------------------------------|
|---------------------------------------------|
|---------------------------------------------|
|---------------------------------------------|
|
|  E  S S  E  S  S  +S   S E      S   S  S  S
|---------------------------------------------|
|--7--7-7--7--7--7--(7)--7-7------7---7--7--7-|
|--8--8-8--8--8--8--(8)--8-8------8---8--8--8-|
|--6--6-6--6--6--6--(6)--6-6------6---6--6--6-|
|--7--7-7--7--7--7--(7)--7-7------7---7--7--7-|
|--0--0-0--0--0--0--(0)--0-0------0---0--0--0-|


                        F#5      B5
   E  E    E  S  S  +S   S  E  S  E    S
|-11\-----------14-(14)----14----14------|
|-----9---11-12---------12----12------12-|
|----------------------------------------|
|----------------------------------------|
|----------------------------------------|
|----------------------------------------|
|
|  E  S S  E  S  S   S   S  E  S  S E
|----------------------------------------|
|--7--7-7--7--7--7-----------------------|
|--8--8-8--8--8--8-------------x--4-4----|
|--6--6-6--6--6--6---x---4--4--x--4-4----|
|--7--7-7--7--7--7---x---4--4--x--2-2----|
|--0--0-0--0--0--0---x---2--2------------|


  E5
   >
   W           +W
|-11--------|-(11)----*|
|-----------|---------*|
|-----------|---------*|
|-----------|---------*|
|-----------|---------*|
|-----------|---------*|
|
|  >
|  W           +W
|-----------|---------*|
|-----------|---------*|
|-----------|---------*|
|--2--------|--(2)----*|
|--2--------|--(2)----*|
|--0--------|--(0)----*|




--------------------------------------------------------------------------------


Duration Legend
---------------
W - whole; H - half; Q - quarter; E - 8th; S - 16th; T - 32nd; X - 64th; a - acciaccatura
+ - note tied to previous; . - note dotted; .. - note double dotted
Uncapitalized letters represent notes that are staccato (1/2 duration)
Irregular groupings are notated above the duration line
Duration letters will always appear directly above the note/fret number it represents the
duration for.  Duration letters with no fret number below them represent rests.  Multi-
bar rests are notated in the form Wxn, where n is the number of bars to rest for.  Low
melody durations appear below the staff

Tablature Legend
----------------
 h   - hammer-on
 p   - pull-off
 b   - bend
 pb  - pre-bend
 r   - bend release (if no number after the r, then release immediately)
 /\  - slide into or out of (from/to "nowhere")
 s   - legato slide
 S   - shift slide
 - natural harmonic
[n]  - artificial harmonic
n(n) - tapped harmonic
 ~   - vibrato
 tr  - trill
 T   - tap
 TP  - trem. picking
 PM  - palm muting
\n/  - tremolo bar dip; n = amount to dip
 \n  - tremolo bar down
 n/  - tremolo bar up
/n\  - tremolo bar inverted dip
 =   - hold bend; also acts as connecting device for hammers/pulls
 <> - volume swell (louder/softer)
 x   - on rhythm slash represents muted slash
 o   - on rhythm slash represents single note slash

Misc Legend
-----------
 |  - bar
||  - double bar
||o - repeat start
o|| - repeat end
*|  - double bar (ending)
 :  - bar (freetime)
 $  - Segno
 &  - Coda
Tempo markers -  = BPM(8/16=s8/s16), where s8 = swing 8ths, s16 = swing 16ths





Comments


Popular Mae tabs & chords
Suspension 2 Bass Tabs
On Top Chords
Suspension 1 Chords
Prologue Transcribed For Guitar Tabs
Suspension Tabs
Tisbury Lane 1 Tabs
Two Birds Tabs
A Melody The Memory Ukulele
Ready And Waiting To Fall Ukulele
Sun And The Moon Ukulele


Song lyrics



↑ Back to top | Tablatures and chords are parodies/interpretations of the original songs. You may use it for private study, scholarship, research or language learning purposes only
© 2014 AZChords.com Contact us | Privacy policy | DMCA | Add/correct tabs | Request tabs | Top 50 tabs