» » »

Beautyproof Tabs (ver.2)

Artists:  A B C D E F G H I J K L M N O P Q R S T U V W X Y Z # 

Beautyproof Tabs (ver.2)

Madrugada
Rating:
5/5 (3 votes)

Hard to play? Try these video lessons and learn fast.
                -------------------------------------------------------------------------------
     BEUTYPROOF - Madrugada
-------------------------------------------------------------------------------

Tuning:   Standard E



verse pattern:

e |-----------------|-----------------|-----------------|-------------------|
B |-----------------|-----------------|-----------------|-------------------|
G |-----------------|-5-5-5-5-5-5-5---|-----------------|-------------------|
D |-3-3-3-3-3-3-3-3-|-3-3-3-3-3-3-3-0-|-3-3-3-3-3-------|-------------------|
A |-5-5-5-5-5-5-5-5-|-5-5-5-5-5-5-5-0-|-1-1-1-1-1-------|---1-1-1-1-1-1-1-0-|
E |-----------------|-----------------|-----------1-2-3-|---3-3-3-3-3-3-3-0-|


Intro: 2x verse pattern


verse:
Ain't got no destination
Bit short on apprehension
Real hot and coming up soon
New better news persentation
Face down in raw, red meat
Skinny girl watching the ugly
Thank god for the little girls
Give us the blonde with the curls, yeah

chorus:
F           Am           Dm
   What you got is what gets me every time

F              Am            Dm
   The way you p**s on everything real

F          Am                        Dm
   Show me one that you think is so virtuous and clean

F           Am
   And I'll show you what I mean

(verse pattern again)
No boots and no direction
No horse and no depression
No boring conversation
No need for no consolation
No need to be aroused  Dm (heavy strumming)


Yeah, lipstick, leather and chrome
Press button and insert coin
Quick Elvis imitation
Slip both then constellation, constellation

chorus


-------------------------------------------------------------------------------

If you find anything wrong or to make better,
feel free to mail me ;)
            
Hard to play? Try these video lessons and learn fast. | Correct




comments powered by Disqus
↑ Back to top | Tablatures and chords are parodies/interpretations of the original songs. You may use it for private study, scholarship, research or language learning purposes only