» » »

Madrugada, A Deadend Mind Tabs (ver.1)

Artists:  A B C D E F G H I J K L M N O P Q R S T U V W X Y Z # 

A Deadend Mind Tabs (ver.1)

Madrugada Tabs
 Rating:
4.2/5 (5 votes)
A Deadend Mind lessons Tabs too difficult? Try these video lessons and learn fast
                
Standard tuning (EADGBE)

()= Played only in verse 2

Intro:

    Am                  G          F
e||-0-------------------3----------1-------------------------------|
B||-1-------------------3----------1-------------------------------|
G||-2-------------------4----------2-------------------------------|
D||-2--2h3p2--0----0h2--5--0h2p0---3--2h3p2--0----0h2--------------|
A||-0-----------3-------5----------3-----------3----------2h3p2----|
E||-0-------------------3--------0-1-------------------3---------4-|

    Am                  G          F                          Am
e||-0------------------------------1--------------------------0----|
B||-1------------------------------1--------------------------1----|
G||-2-------------------4----------2--------------------------2----|
D||-2--2h3p2--0----0h2--5--0h2p0---3--3-3-2-0---0-------------2----|
A||-0-----------3-------5----------3----------3------2h3p2----0----|
E||-0-------------------3--------0-1--------------3---------4-0----|


Verse 1,2 and chorus:

    G     F     G           Am    G           F     G         Am
e||-3-----1-----3-----(3)---0-----3-----(3)---1---------------0--------|
B||-3-----1-----3--------(3)1-----3--------(3)1---------------2--------|
G||-4-----2-----4-----------2-----4--(4)------2----------4----2--------|
D||-5-----3-----5--(5)------2-----5-----------3---------5-----1--------|
A||-5-----3-----5-----------0-----5-----------3--------5------0--------|
E||-3-----1-----3-----------0-----3-----------1-----3---------0--------|


e||-------------1-0-0--------------------------1-0-0------------1-0-0--|
B||-----1---1-0-3-0-1---1-0---1--------1---1-0-3-0-1--1-0---1-0-3-0-1--|
G||-------0-2-0-2-0-2-------2-2----------0-2-0-2-0-2------0-2-0-2-0-2--|
D||---2-----3-2-0-2-2---------2------2-----3-2-0-2-2--------3-2-0-2-2--|
A||-3-------3-2-0-2-0---------0----3-------3-2-0-2-0--------3-2-0-2-0--|
E||--------------------------------------------------------------------|



Solo after verse 1:

    Am                             F
e||-0------------------------------1-------------------------------|
B||-1------------------------------1-------------------------------|
G||-2------------------------------2-------------------------2-----|
D||-2--2h3p2--0----0h2-----0h2p0---3--3-3-2-0---0------------2-----|
A||-0-----------3------------------3----------3------2-2h3p2-0-----|
E||-0-------------------3--------0-1--------------3----------------|

                               F                          Am
e||----------------------------1--------------------------0--------|
B||----------------------------1--------------------------1--------|
G||-----0----------------------2--------------------------2--------|
D||-2h3---3-2-0h2------0h2p0---3--3-3-2-0---0-------------2--------|
A||----------------------------3----------3------2h3p2----0--------|
E||-----------------3--------0-1--------------3---------4-0--------|

The last solo:

e||----------------------------------------------------------------|
B||--------------------------------------8-------------------------|
G||-----------5-----5-7p5---------5--7b-----7p5-7-5-----5h7-7/9----|
D||-----5-7-----7---------7---5h7-------------------7--------------|
A||-5h7------------------------------------------------------------|
E||----------------------------------------------------------------|

e||---------------------------------------------------8------------|
B||-8-8h10---8-8-8h10--8--------------------------------8-8h10-----|
G||----------------------9-7-5--------------5h7-7/9----------------|
D||----------------------------7-------5-7-------------------------|
A||-------------------------------5h7------------------------------|
E||----------------------------------------------------------------|

e||-------8--------------------------------------------------------|
B||-8h10----10--8--------------------------------------------------|
G||----------------9-7-5h7-b9p7---5h7-b9p7---5-9b7p5---------------|
D||--------------------------------------------------7-5h7---------|
A||----------------------------------------------------------------|
E||----------------------------------------------------------------|

e||---------------8------------------------5-----------------------|
B||----------8h10---10-8---------------5---------------------------|
G||-5h7-7/9--------------9-7---------5-----------------------------|
D||--------------------------------7-------------------------------|
A||------------------------------7---------------------------------|
E||----------------------------5-----------------------------------|
            
Submit corrections

comments powered by Disqus
↑ Back to top | Madrugada Tabs for A Deadend Mind. Lyrics for acoustic guitar and electric guitar. Tablatures and chords are parodies/interpretations of the original songs. You may use it for private study, scholarship, research or language learning purposes only