» » »

Hollywood Tabs (ver.2)

Artists:  A B C D E F G H I J K L M N O P Q R S T U V W X Y Z # 

Hollywood Tabs (ver.2)

Madonna
Rating:
0/5 (0 votes)

Hard to play? Try these video lessons and learn fast.
                tuning: standard

2 simple guitar-riffs and some samples...




riff 1

E--------------------------------
B-------3-------3----------------
G-----4-------2------------------
D---4-------0---------5-------2--
A-2-------0---------5-----0-2--2-
E-----------------3-----0--------

riff 2 (3:00)

E---------------------------------
B-----5---------------------------
G-------6------9------------------
D---6--------9---9-----7-------4--
A-4--------7---------7-------4----
E------------------5-----2-2------

E---------------------------------
B-----5---------------------------
G-------6------9------------------
D---6--------9---9-----7--------4-
A-4--------7---------7------2h4--2
E------------------5-----2-2------

for the timing listen to the song!
            
Hard to play? Try these video lessons and learn fast. | Correct




comments powered by Disqus
↑ Back to top | Tablatures and chords are parodies/interpretations of the original songs. You may use it for private study, scholarship, research or language learning purposes only