» » »

Madonna, Material Girl Bass tabs (ver.1)

Artists:  A B C D E F G H I J K L M N O P Q R S T U V W X Y Z # 

Material Girl Bass tabs (ver.1)

Madonna Tabs
 Rating:
4/5 (4 votes)
Material Girl lessons Tabs too difficult? Try these video lessons and learn fast
1
                MADONNA - MATERIAL GIRL

CREDIT TO REES CLISSOLD FOR MUCH OF THE WORK, BUT
THE INNACCURACIES IN IT WERE DRIVING ME WILD!

THIS IS MY FIRST ATTEMPT AT TABBING A SONG, AND
I'M PRETTY SURE THE CHORUS IS A LITTLE BIT OFF. ALL
THE NOTES ARE THERE IN THE CORRECT ORDER, YOU MAY JUST
HAVE TO MESS AROUND WITH THE TIMING.


SONG LAYOUT -

INTRO
VERSE
CHORUS
INTERLUDE 1
VERSE
CHORUS
INTERLUDE 2
VERSE
CHORUS
INTERLUDE 3
VERSE TWICE


INTRO:

-------------------
-------------------
-3-3---3---3-3---3-
-----3---3-----3---  (Play 8 times)

VERSE 1:

-------------------
-------------------
-3-3---3---3-3---3-
-----3---3-----3---

-------------------
-------------------
-5-5---5----3-3---3-
-----3---3-----3---

-------------------
-------------------
-3-3---3---3-3---3-
-----3---3-----3---

-------------------
-------------------
-5-5-0-5-0-5-5-0-5-
-------------------  (Play all twice)

CHORUS 1:

-------------------
-------------------
-3-35-5-56-3-3-5-56
-------------------

-------------------
-------------------
-3-35-5-56-3-3-5-56
-------------------


INTERLUDE 1: (1:11)

-------------------
-------------------
-3-3---3---3-3---3-
-----3---3-----3---  (Play twice)

INTERLUDE 2: (1:59)

-------------------
-------------------
-3-3---3---3-3---3-
-----3---3-----3---  (Play 4 times)

-------------------
-------------------
-3-3---3---3-3---3-
-----3---3-----3---

-------------------
-------------------
-5-5---5---3-3---3-
-----3---3-----3---

-------------------
-------------------
-3-3---3---3-3---3-
-----3---3-----3---

-------------------
-------------------
-5-5-0-5-0-5-5-0-5-

INTERLUDE 3:  (2:56)

-------------------
-------------------
-3-3---3---1-1---1-
-----3---3-----1---

-------------------
-------------------
-1-1---1---0-0---0-
-----1---1-----0---

-------------------
-------------------
-3-3---3---1-1---1-
-----3---3-----1---

-------------------
-------------------
-1-1---1---0-0---0-
-----1---1-----0---

-------------------
-------------------
-3-3---3---3-3---3-
-----3---3-----3---

-------------------
-------------------
-3-3---3---3-r-r-r-
-----3---3---------

-------------------
-------------------
-r-r---r---r-r---r-
-----r---r-----r---
            
Submit corrections

comments powered by Disqus
↑ Back to top | Madonna Bass for Material Girl. Lyrics for acoustic guitar and electric guitar. 1 Tablatures and chords are parodies/interpretations of the original songs. You may use it for private study, scholarship, research or language learning purposes only