» » »

Madonna, 4 Minutes Bass tabs (ver.1)

Artists:  A B C D E F G H I J K L M N O P Q R S T U V W X Y Z # 

4 Minutes Bass tabs (ver.1)

Madonna Tabs
Rating:
5/5 (3 votes)
4 Minutes lessons Tabs too difficult? Try these video lessons and learn fast
                Intro
G--------------------------3----2--3-2-------------------------|
D-------------3---5--------------------5---------5---3--5-3-0--|
A---------5----------------------------------------------------|
E----3-----------------3--------------------3------------------|

G-----7---5--7-5-3--|
D-------------------|
A-------------------|
E--3----------------|

Verse
G--------------------------3----2--3-2-------------------------|
D-------------3---5--------------------5---------5---3--5-3-0--|
A---------5----------------------------------------------------|
E----3-----------------3--------------------3------------------|

G-----7---5--7-5-3--|
D-------------------|
A-------------------|
E--3----------------|

PreChorus
G--------------------------3----2--3-2-------------------------|
D-------------3---5--------------------5---------5---3--5-3-0--|
A---------5----------------------------------------------------|
E----3-----------------3--------------------3------------------|

G-----7---5--7-5-3--|
D-------------------|
A-------------------|
E--3----------------|

Chorus
G-------------5-------5------7---------------------------------|
D--------------------------------------------------3-----------|
A---6---6--5-------------------------6----6---6--5-------------|
E--------------------------------------------------------------|

G---2-----3-2-0-------|
D---------------------|
A---------------------|
E---------------------|

Interlude
G--------------------------3----2--3-2-------------------------|
D-------------3---5--------------------5---------5---3--5-3-0--|
A---------5----------------------------------------------------|
E----3-----------------3--------------------3------------------|

G-----7---5--7-5-3--|
D-------------------|
A-------------------|
E--3----------------|
            

comments powered by Disqus
↑ Back to top | Madonna Bass for 4 Minutes. Lyrics for acoustic guitar and electric guitar. Tablatures and chords are parodies/interpretations of the original songs. You may use it for private study, scholarship, research or language learning purposes only