» » »

Madness, Our House Bass tabs (ver.2)

Artists:  A B C D E F G H I J K L M N O P Q R S T U V W X Y Z # 

Our House Bass tabs (ver.2)

Madness Tabs
 Rating:
4/5 (4 votes)
Our House lessons Tabs too difficult? Try these video lessons and learn fast
1
                Madness
"Our House"
 
This is another Kmart '80's special.  There are a few bass fills in here that
elude me, but this is otherwise a pretty easy song to jam along with.
 
Intro
(rest through piano & drums)
G|---------------|
D|---------------|
A|---/15---/15---|
E|---------------|
 
Figure 1
G|------------------------------------------------------------------|
D|*-------------------------------------------------3-3--2--0-0--2--|
A|*---3-3--3--3-3-3-----------------5-5--5--5-5-5-------------------|
E|-------------------3-3--3--3-3-3----------------------------------|
 
G|------------------------------------------------------------------|
D|--------------------------------------------------3----2---0---2-*|
A|----3-3--3--3-3-3-----------------5-5--5--5-5-5------------------*|
E|-------------------3-3--3--3-3-3----------------------------------|
 
Figure 2
G|-----------------------------------------------------------|
D|----------------------5-----5--------------------5---5-----|
A|--5---5--------7----7---------5---5-------7----7---7-------|
E|--------5----5----------------------5---5------------------|
 
Figure 3
G|-----------------------------------------------------------|
D|----------------------2-----2--------------------2---2-----|
A|--2---2--------4----4---------2---2-------4----4---4-------|
E|--------2----2----------------------2---2------------------|
 
Figure 4
G|----------------------------------|
D|*--------------------------------*|
A|*-----------------------------2--*|
E|--2--3----3--2----2--5-----5------|
 
Figure 5
G|---------------------------------------------------------------------|
D|*------------2-3----5-5--5--5-3-2--------------5-----3-3--2--0-0--2--|
A|*--3-3--3--3------------------------5-5--5--5----5-------------------|
E|---------------------------------------------------------------------|
                                                this part isn't right,
                                          but it works.  Suggestions
                                              are gladly accepted!  :)
G|---------------------------------------------------------------------|
D|-------------2-3----5-5--5--5-3-2--------------5-----3----2---0---2-*|
A|---3-3--3--3------------------------5-5--5--5----5------------------*|
E|---------------------------------------------------------------------|
 
Figure 6
G|-----------------------------------------------------------|
D|----------------------3-----3--------------------3---3-----|
A|--3---3--------5----5---------3---3-------5----5---5-------|
E|--------3----3----------------------3---3------------------|
 
Intro 1x
Figure 1 2x (second time is first verse)
figure 2 1x (chorus)
figure 1 1x (second verse)
figure 2 1x (chorus)
figure 3 1x
figure 1 1x (third verse)
figure 4 1x (actually, it's a bari sax, but who's gonna tell on us?  ;)
figure 5 1x
figure 2 1x
figure 5 2x (fourth verse)
figure 2 1x
figure 3 1x
figure 6 1x
figure 2 1x (fade out)
 
 
Eric Somdahl
ICQ #67654004
            
Submit corrections

comments powered by Disqus
↑ Back to top | Madness Bass for Our House. Lyrics for acoustic guitar and electric guitar. 1 Tablatures and chords are parodies/interpretations of the original songs. You may use it for private study, scholarship, research or language learning purposes only