» » »

Madness, Baggy Trousers Tabs (ver.1)

Artists:  A B C D E F G H I J K L M N O P Q R S T U V W X Y Z # 

Baggy Trousers Tabs (ver.1)

Madness Tabs
Rating:
0/5 (0 votes)
Baggy Trousers lessons Tabs too difficult? Try these video lessons and learn fast
                hey this is my version of baggy trousers

hope u enjoy it any probs let us kno 
and plz rate cheers :)

standard tuning

intro
|---------1-1-1-1----------|
|---------1-1-1-1----------|
|--8-7-5--2-2-2-2-8-7-5----|
|--9-8-6--3-3-3-3-9-8-6----|
|--9-8-6----------9-8-6----|
|--7-6-4----------7-6-4----|

verse
|--1-1-1-1-4-4-4-4-6-6-6-6---------|
|--1-1-1-1-4-4-4-4-6-6-6-6---------|
|--2-2-2-2-5-5-5-5-7-7-7-7-8-7-5---|
|--3-3-3-3-6-6-6-6-8-8-8-8-9-8-6---|
|--------------------------9-8-6---|
|--------------------------7-6-4---|

chorus
|--6-6-6-6--1-1-1-1--6-6-6-6--------------------------|
|--6-6-6-6--1-1-1-1--6-6-6-6-------------xx-----------|
|--7-7-6-6--2-2-1-1--7-7-6-6--9-9-9-9-9--xx-7/9--9----|
|--8-8-8-8--3-3-3-3--8-8-8-8--1010101010-xx-8/10-10---|
|-----------------------------1010101010-xx-8/10-10---|
|-----------------------------8-8-8-8-8-----6/8--8----|

|--6-6-6-6--1-1-1-1--6-6-6-6------------------------|
|--6-6-6-6--1-1-1-1--6-6-6-6-------------xx---------|
|--7-7-6-6--2-2-1-1--7-7-6-6--9-9-9-9-9--xx-8-7-5---|
|--8-8-8-8--3-3-3-3--8-8-8-8--1010101010-xx-9-8-6---|
|--8-8-8-8--3-3-3-3--8-8-8-8--1010101010-xx-9-8-6---|
|-----------------------------8-8-8-8-8-----7-6-4---|

verse
|--1-1-1-1-4-4-4-4-6-6-6-6---------|
|--1-1-1-1-4-4-4-4-6-6-6-6---------|
|--2-2-2-2-5-5-5-5-7-7-7-7-8-7-5---|
|--3-3-3-3-6-6-6-6-8-8-8-8-9-8-6---|
|--------------------------9-8-6---|
|--------------------------7-6-4---|

chorus
|--6-6-6-6--1-1-1-1--6-6-6-6--------------------------|
|--6-6-6-6--1-1-1-1--6-6-6-6-------------xx-----------|
|--7-7-6-6--2-2-1-1--7-7-6-6--9-9-9-9-9--xx-7/9--9----|
|--8-8-8-8--3-3-3-3--8-8-8-8--1010101010-xx-8/10-10---|
|-----------------------------1010101010-xx-8/10-10---|
|-----------------------------8-8-8-8-8-----6/8--8----|

|--6-6-6-6--1-1-1-1--6-6-6-6---------------------------|
|--6-6-6-6--1-1-1-1--6-6-6-6-------------xx------------|
|--7-7-6-6--2-2-1-1--7-7-6-6--9-9-9-9-9--xx-9--10-11---|
|--8-8-8-8--3-3-3-3--8-8-8-8--1010101010-xx-10-11-12---|
|--8-8-8-8--3-3-3-3--8-8-8-8--1010101010-xx-10-11-12---|
|-----------------------------8-8-8-8-8-----8--9--10---|

riff
|--17-------------------14-17-------------------14---|
|-----18-15-17-18-15-18-------18-15-17-18-15-18------|
|----------------------------------------------------|
|----------------------------------------------------|
|----------------------------------------------------|
|----------------------------------------------------|

|--1717-------1919-------1717-------------|
|-------18-15------20-17------18-15-------|
|-----------------------------------16----|
|-----------------------------------------|
|-----------------------------------------|
|-----------------------------------------|

|--1717-------1919-------1717---------------------|
|-------18-15------20-17------18-15-16-15-14-13---|
|-------------------------------------------------|
|-------------------------------------------------|
|-------------------------------------------------|
|-------------------------------------------------|

verse
|--1-1-1-1-4-4-4-4-6-6-6-6---------|
|--1-1-1-1-4-4-4-4-6-6-6-6---------|
|--2-2-2-2-5-5-5-5-7-7-7-7-8-7-5---|
|--3-3-3-3-6-6-6-6-8-8-8-8-9-8-6---|
|--------------------------9-8-6---|
|--------------------------7-6-4---|

chorus
|--6-6-6-6--1-1-1-1--6-6-6-6--------------------------|
|--6-6-6-6--1-1-1-1--6-6-6-6-------------xx-----------|
|--7-7-6-6--2-2-1-1--7-7-6-6--9-9-9-9-9--xx-7/9--9----|
|--8-8-8-8--3-3-3-3--8-8-8-8--1010101010-xx-8/10-10---|
|-----------------------------1010101010-xx-8/10-10---|
|-----------------------------8-8-8-8-8-----6/8--8----|

|--6-6-6-6--1-1-1-1--6-6-6-6------------------------|
|--6-6-6-6--1-1-1-1--6-6-6-6-------------xx---------|
|--7-7-6-6--2-2-1-1--7-7-6-6--9-9-9-9-9--xx-8-7-5---|
|--8-8-8-8--3-3-3-3--8-8-8-8--1010101010-xx-9-8-6---|
|--8-8-8-8--3-3-3-3--8-8-8-8--1010101010-xx-9-8-6---|
|-----------------------------8-8-8-8-8-----7-6-4---|

verse
|--1-1-1-1-4-4-4-4-6-6-6-6---------|
|--1-1-1-1-4-4-4-4-6-6-6-6---------|
|--2-2-2-2-5-5-5-5-7-7-7-7-8-7-5---|
|--3-3-3-3-6-6-6-6-8-8-8-8-9-8-6---|
|--------------------------9-8-6---|
|--------------------------7-6-4---|

chorus
|--6-6-6-6--1-1-1-1--6-6-6-6--------------------------|
|--6-6-6-6--1-1-1-1--6-6-6-6-------------xx-----------|
|--7-7-6-6--2-2-1-1--7-7-6-6--9-9-9-9-9--xx-7/9--9----|
|--8-8-8-8--3-3-3-3--8-8-8-8--1010101010-xx-8/10-10---|
|-----------------------------1010101010-xx-8/10-10---|
|-----------------------------8-8-8-8-8-----6/8--8----|

|--6-6-6-6--1-1-1-1--6-6-6-6---------------------------|
|--6-6-6-6--1-1-1-1--6-6-6-6-------------xx------------|
|--7-7-6-6--2-2-1-1--7-7-6-6--9-9-9-9-9--xx-9--10-11---|
|--8-8-8-8--3-3-3-3--8-8-8-8--1010101010-xx-10-11-12---|
|--8-8-8-8--3-3-3-3--8-8-8-8--1010101010-xx-10-11-12---|
|-----------------------------8-8-8-8-8-----8--9--10---|

riff
|--17-------------------14-17-------------------14---|
|-----18-15-17-18-15-18-------18-15-17-18-15-18------|
|----------------------------------------------------|
|----------------------------------------------------|
|----------------------------------------------------|
|----------------------------------------------------|

|--1717-------1919-------1717-------------|
|-------18-15------20-17------18-15-------|
|-----------------------------------16----|
|-----------------------------------------|
|-----------------------------------------|
|-----------------------------------------|

|--1717-------1919-------1717---------------------|
|-------18-15------20-17------18-15-16-15-14-13---|
|-------------------------------------------------|
|-------------------------------------------------|
|-------------------------------------------------|
|-------------------------------------------------|

outro
|--1-1-1-1-4-4-4-4-6-6-6-6-----------|
|--1-1-1-1-4-4-4-4-6-6-6-6-----------|
|--2-2-2-2-5-5-5-5-7-7-7-7-8-7-6-5---|
|--3-3-3-3-6-6-6-6-8-8-8-8-9-8-7-6---|
|--------------------------9-8-7-6---|
|--------------------------7-6-5-4---|

hope that helps have fun :)
            
Submit corrections

comments powered by Disqus
↑ Back to top | Madness Tabs for Baggy Trousers. Lyrics for acoustic guitar and electric guitar. Tablatures and chords are parodies/interpretations of the original songs. You may use it for private study, scholarship, research or language learning purposes only