>
 >
Me Vs The World 1

Me Vs The World 1 Guitar Tabs

Madina Lake - Me Vs The World 1 chords, tabs, tablatures, lyrics

Guitar lessons | Add/correct | Request | Top 50 tabs Artists:  A B C D E F G H I J K L M N O P Q R S T U V W X Y Z 0-9

Me Vs The World 1 Guitar Tabs – Madina Lake

CD, Sheet music, Poster

Do you like Me Vs The World 1? Share with your friends now
ChordsTabsTabs v2Ukulele
E|--13-13-13-13-13-13-12-12-12-12-----------|
B|-------------------------------13-13-13-13|
G|------------------------------------------|
D|------------------------------------------|x8
A|------------------------------------------|
D|------------------------------------------|

Verse: 

E|-----------------|
B|-----------------|
G|-----------------|
D|--0~--5~--1~--3~-| x2
A|--0~--5~--1~--3~-|
D|--0~--5~--1~--3~-|

Chorus:

E|-------------------------------------------------------------|
B|-------------------------------------------------------------|
G|-------------------------------------------------------------|
D|-3333--3333--0000--0000--6666666666666666--8888888888888888--|x2
A|-3333--3333--0000--0000--6666666666666666--8888888888888888--|
D|-3333--3333--0000--0000--6666666666666666--8888888888888888--|

Verse 2: 

E|---------------------------------------------------------------------|
B|---------------------------------------------------------------------|
G|---------------------------------------------------------------------|
D|----0-0-0-0-0-0-0-0-5-5-5-5-5-5-5-5-1-1-1-1-1-1-1-1-1-1-1-1-1-3-3-3-3| X2
A|----0-0-0-0-0-0-0-0-5-5-5-5-5-5-5-5-1-1-1-1-1-1-1-1-1-1-1-1-1-3-3-3-3|
D|----0-0-0-0-0-0-0-0-5-5-5-5-5-5-5-5-1-1-1-1-1-1-1-1-1-1-1-1-1-3-3-3-3|
   pm . . . . . . . .   . . . . . . .   . . . . . . .   . . . .   . . 

  CHORUS

  INTRO 

E|-----------------|
B|-----------------|
G|-----------------|
D|---0~---0~---1~--|
A|---0~---0~---1~--|
D|---0~---0~---1~--|

CHORUS ONCE

E|---------------------------------------------------------|
B|---------------------------------------------------------|
G|---------------------------------------------------------|
D|--3-3--3-3--0-0--0-0-6666666666666666--8888888888888888--|
A|--3-3--3-3--0-0--0-0-6666666666666666--8888888888888888--|
D|--3-3--3-3--0-0--0-0-6666666666666666--8888888888888888--|



E|------------------------------------------------------------------|
B|------------------------------------------------------------------|
G|------------------------------------------------------------------|
D|--3-3-3-3-3-3-3-3-3-3-3-3-3-3-3-3-0-0-0-0-0-0-0-0-0-0-0-0-0-0-0-0-|
A|--3-3-3-3-3-3-3-3-3-3-3-3-3-3-3-3-0-0-0-0-0-0-0-0-0-0-0-0-0-0-0-0-|
D|--3-3-3-3-3-3-3-3-3-3-3-3-3-3-3-3-0-0-0-0-0-0-0-0-0-0-0-0-0-0-0-0-|

E|-----------------------------------------------------------------|
B|-----------------------------------------------------------------|
G|-----------------------------------------------------------------|
D|-6-6-6-6-6-6-6-6-6-6-6-6-6-6-6-6-8-8-8-8-8-8-8-8-5-5-5-5-5-5-5-5-|
A|-6-6-6-6-6-6-6-6-6-6-6-6-6-6-6-6-8-8-8-8-8-8-8-8-5-5-5-5-5-5-5-5-|
D|-6-6-6-6-6-6-6-6-6-6-6-6-6-6-6-6-8-8-8-8-8-8-8-8-5-5-5-5-5-5-5-5-|


E|-----------------------------------------------------------------|
B|-----------------------------------------------------------------|
G|-----------------------------------------------------------------|
D|-3-3-3-3-3-3-3-3-3-3-3-3-3-3-3-3-0-0-0-0-0-0-0-0-0-0-0-0-0-0-0-0-|
A|-3-3-3-3-3-3-3-3-3-3-3-3-3-3-3-3-0-0-0-0-0-0-0-0-0-0-0-0-0-0-0-0-|
D|-3-3-3-3-3-3-3-3-3-3-3-3-3-3-3-3-0-0-0-0-0-0-0-0-0-0-0-0-0-0-0-0-|

E|------------------------------------------------------|
B|------------------------------------------------------|
G|------------------------------------------------------|
D|--0000000000000000-8888888888888888-5555555555555555--|
A|--0000000000000000-8888888888888888-5555555555555555--|
D|--0000000000000000-8888888888888888-5555555555555555--|

End on:

E|--------|
B|--------|
G|--------|
D|---0~~--|
A|---0~~--|
D|---0~~--|
I THINK THATS IT





Comments


Popular Madina Lake tabs & chords
Pandora 4 Bass Tabs
Adalia 2 Chords
Adalia 3 Chords
River People Chords
House Of Cards 1 Tabs
Never Take Us Alive 1 Tabs
Adalia 2 Ukulele
Silent Voices Kill Ukulele
True Love Ukulele
Well Be Ok Ukulele


Song lyrics



↑ Back to top | Tablatures and chords are parodies/interpretations of the original songs. You may use it for private study, scholarship, research or language learning purposes only
© 2014 AZChords.com Contact us | Privacy policy | DMCA | Add/correct tabs | Request tabs | Top 50 tabs