>
 >
Me Vs The World

Me Vs The World Guitar Tabs

Madina Lake - Me Vs The World chords, tabs, tablatures, lyrics

Guitar lessons | Add/correct | Request | Top 50 tabs Artists:  A B C D E F G H I J K L M N O P Q R S T U V W X Y Z 0-9

Me Vs The World Guitar Tabs – Madina Lake

CD, Sheet music, Poster

Do you like Me Vs The World? Share with your friends now
ChordsTabsTabs v2Ukulele
D|--15-15-15-15-15-15-14-14-14-14-----------|
A|-------------------------------15-15-15-15|
F|------------------------------------------|
C|------------------------------------------|x8
G|------------------------------------------|
C|------------------------------------------|

Verse: turn your volume way down for this.

D|----------------------------------|
A|----------------------------------|
F|----------------------------------|
C|--2~~-7~~-3~~-5~~-2~~-7~~-3~~-5~~-|
G|--2~~-7~~-3~~-5~~-2~~-7~~-3~~-5~~-|
C|--2~~-7~~-3~~-5~~-2~~-7~~-3~~-5~~-|

Chorus:

D|-----------------------------------------------------------------------|
A|-----------------------------------------------------------------------|
F|-----------------------------------------------------------------------|
C|-5555--5555--2222--2222--8888888888888888--1010101010101010--777777-xxx|x2
G|-5555--5555--2222--2222--8888888888888888--1010101010101010--777777-xxx|
C|-5555--5555--2222--2222--8888888888888888--1010101010101010--777777-xxx|

Verse 2: REALLY QUIET AGAIN

D|--------------------------------------------------------------------|
A|--------------------------------------------------------------------|
F|--------------------------------------------------------------------|
C|----2-2-2-2-2-2-2-2-7-7-7-7-7-7-7-7-3-3-3-3-3-3-3-3-3-3-3-3-3-5-5-5-|
G|----2-2-2-2-2-2-2-2-7-7-7-7-7-7-7-7-3-3-3-3-3-3-3-3-3-3-3-3-3-5-5-5-|
C|----2-2-2-2-2-2-2-2-7-7-7-7-7-7-7-7-3-3-3-3-3-3-3-3-3-3-3-3-3-5-5-5-|
   pm . . . . . . . .   . . . . . . .   . . . . . . .   . . . .   . . 

D|------------------------------------------------------------|
A|------------------------------------------------------------|
F|------------------------------------------------------------|
C|--2-2-2-2-2-2-2-2-7-7-7-7-7-7-7-7-3-3-3-3-3-3-3-3-5-5-5-5-5-|
G|--2-2-2-2-2-2-2-2-7-7-7-7-7-7-7-7-3-3-3-3-3-3-3-3-5-5-5-5-5-|
C|--2-2-2-2-2-2-2-2-7-7-7-7-7-7-7-7-3-3-3-3-3-3-3-3-5-5-5-5-5-|
  pm. . . . . . . .   . . . . . . .   . . . . . . .   . . . 


  REPEAT CHORUS

  REPEAT INTRO X8, and then end in:
D|-----------------|
A|-----------------|
F|-----------------|
C|---2~---2~---3~--|
G|---2~---2~---3~--|
C|---2~---2~---3~--|


D|--------------------------------------------------------------------|
A|--------------------------------------------------------------------|
F|--------------------------------------------------------------------|
C|--5-5--5-5--2-2--2-2-8888888888888888--1010101010101010--77777-xxx--|
G|--5-5--5-5--2-2--2-2-8888888888888888--1010101010101010--77777-xxx--|
C|--5-5--5-5--2-2--2-2-8888888888888888--1010101010101010--77777-xxx--|

D|--------------------------------------------------------------------|
A|--------------------------------------------------------------------|
F|--------------------------------------------------------------------|
C|--5555--5555-2222--2222-8888888888888888-1010101010101010-77777-xxx-|
G|--5555--5555-2222--2222-8888888888888888-1010101010101010-77777-xxx-|
C|--5555--5555-2222--2222-8888888888888888-1010101010101010-77777-xxx-|

D|------------------------------------------------------------------|
A|------------------------------------------------------------------|
F|------------------------------------------------------------------|
C|--5-5-5-5-5-5-5-5-5-5-5-5-5-5-5-5-2-2-2-2-2-2-2-2-2-2-2-2-2-2-2-2-|
G|--5-5-5-5-5-5-5-5-5-5-5-5-5-5-5-5-2-2-2-2-2-2-2-2-2-2-2-2-2-2-2-2-|
C|--5-5-5-5-5-5-5-5-5-5-5-5-5-5-5-5-2-2-2-2-2-2-2-2-2-2-2-2-2-2-2-2-|

D|-------------------------------------------------------------------------|
A|-------------------------------------------------------------------------|
F|-------------------------------------------------------------------------|
C|-8-8-8-8-8-8-8-8-8-8-8-8-8-8-8-8-10-10-10-10-10-10-10-10-7-7-7-7-7-7-7-7-|
G|-8-8-8-8-8-8-8-8-8-8-8-8-8-8-8-8-10-10-10-10-10-10-10-10-7-7-7-7-7-7-7-7-|
C|-8-8-8-8-8-8-8-8-8-8-8-8-8-8-8-8-10-10-10-10-10-10-10-10-7-7-7-7-7-7-7-7-|


D|-----------------------------------------------------------------|
A|-----------------------------------------------------------------|
F|-----------------------------------------------------------------|
C|-5-5-5-5-5-5-5-5-5-5-5-5-5-5-5-5-2-2-2-2-2-2-2-2-2-2-2-2-2-2-2-2-|
G|-5-5-5-5-5-5-5-5-5-5-5-5-5-5-5-5-2-2-2-2-2-2-2-2-2-2-2-2-2-2-2-2-|
C|-5-5-5-5-5-5-5-5-5-5-5-5-5-5-5-5-2-2-2-2-2-2-2-2-2-2-2-2-2-2-2-2-|

D|----------------------------------------------------------------------|
A|----------------------------------------------------------------------|
F|----------------------------------------------------------------------|
C|--8888888888888888-10101010101010101010101010101010-7777777777777777--|
G|--8888888888888888-10101010101010101010101010101010-7777777777777777--|
C|--8888888888888888-10101010101010101010101010101010-7777777777777777--|

End on:

D|--------|
A|--------|
F|--------|
C|---2~~--|
G|---2~~--|
C|---2~~--|





Comments


Popular Madina Lake tabs & chords
House Of Cards Bass Tabs
Now Or Never Chords
River People Chords
Here I Stand Tabs
Pandora 1 Tabs
Wait Till Sunrise Tabs
Again And Again Ukulele
House Of Cards Ukulele
Never Take Us Alive Ukulele
Not For This World Ukulele


Song lyrics



↑ Back to top | Tablatures and chords are parodies/interpretations of the original songs. You may use it for private study, scholarship, research or language learning purposes only
© 2014 AZChords.com Contact us | Privacy policy | DMCA | Add/correct tabs | Request tabs | Top 50 tabs