» » »

Madina Lake, Me Vs The World Tabs (ver.1)

Artists:  A B C D E F G H I J K L M N O P Q R S T U V W X Y Z # 

Me Vs The World Tabs (ver.1)

Madina Lake Tabs
 Rating:
3.8/5 (5 votes)
Me Vs The World lessons Tabs too difficult? Try these video lessons and learn fast
                D|--15-15-15-15-15-15-14-14-14-14-----------|
A|-------------------------------15-15-15-15|
F|------------------------------------------|
C|------------------------------------------|x8
G|------------------------------------------|
C|------------------------------------------|

Verse: turn your volume way down for this.

D|----------------------------------|
A|----------------------------------|
F|----------------------------------|
C|--2~~-7~~-3~~-5~~-2~~-7~~-3~~-5~~-|
G|--2~~-7~~-3~~-5~~-2~~-7~~-3~~-5~~-|
C|--2~~-7~~-3~~-5~~-2~~-7~~-3~~-5~~-|

Chorus:

D|-----------------------------------------------------------------------|
A|-----------------------------------------------------------------------|
F|-----------------------------------------------------------------------|
C|-5555--5555--2222--2222--8888888888888888--1010101010101010--777777-xxx|x2
G|-5555--5555--2222--2222--8888888888888888--1010101010101010--777777-xxx|
C|-5555--5555--2222--2222--8888888888888888--1010101010101010--777777-xxx|

Verse 2: REALLY QUIET AGAIN

D|--------------------------------------------------------------------|
A|--------------------------------------------------------------------|
F|--------------------------------------------------------------------|
C|----2-2-2-2-2-2-2-2-7-7-7-7-7-7-7-7-3-3-3-3-3-3-3-3-3-3-3-3-3-5-5-5-|
G|----2-2-2-2-2-2-2-2-7-7-7-7-7-7-7-7-3-3-3-3-3-3-3-3-3-3-3-3-3-5-5-5-|
C|----2-2-2-2-2-2-2-2-7-7-7-7-7-7-7-7-3-3-3-3-3-3-3-3-3-3-3-3-3-5-5-5-|
   pm . . . . . . . .   . . . . . . .   . . . . . . .   . . . .   . . 

D|------------------------------------------------------------|
A|------------------------------------------------------------|
F|------------------------------------------------------------|
C|--2-2-2-2-2-2-2-2-7-7-7-7-7-7-7-7-3-3-3-3-3-3-3-3-5-5-5-5-5-|
G|--2-2-2-2-2-2-2-2-7-7-7-7-7-7-7-7-3-3-3-3-3-3-3-3-5-5-5-5-5-|
C|--2-2-2-2-2-2-2-2-7-7-7-7-7-7-7-7-3-3-3-3-3-3-3-3-5-5-5-5-5-|
  pm. . . . . . . .   . . . . . . .   . . . . . . .   . . . 


  REPEAT CHORUS

  REPEAT INTRO X8, and then end in:
D|-----------------|
A|-----------------|
F|-----------------|
C|---2~---2~---3~--|
G|---2~---2~---3~--|
C|---2~---2~---3~--|


D|--------------------------------------------------------------------|
A|--------------------------------------------------------------------|
F|--------------------------------------------------------------------|
C|--5-5--5-5--2-2--2-2-8888888888888888--1010101010101010--77777-xxx--|
G|--5-5--5-5--2-2--2-2-8888888888888888--1010101010101010--77777-xxx--|
C|--5-5--5-5--2-2--2-2-8888888888888888--1010101010101010--77777-xxx--|

D|--------------------------------------------------------------------|
A|--------------------------------------------------------------------|
F|--------------------------------------------------------------------|
C|--5555--5555-2222--2222-8888888888888888-1010101010101010-77777-xxx-|
G|--5555--5555-2222--2222-8888888888888888-1010101010101010-77777-xxx-|
C|--5555--5555-2222--2222-8888888888888888-1010101010101010-77777-xxx-|

D|------------------------------------------------------------------|
A|------------------------------------------------------------------|
F|------------------------------------------------------------------|
C|--5-5-5-5-5-5-5-5-5-5-5-5-5-5-5-5-2-2-2-2-2-2-2-2-2-2-2-2-2-2-2-2-|
G|--5-5-5-5-5-5-5-5-5-5-5-5-5-5-5-5-2-2-2-2-2-2-2-2-2-2-2-2-2-2-2-2-|
C|--5-5-5-5-5-5-5-5-5-5-5-5-5-5-5-5-2-2-2-2-2-2-2-2-2-2-2-2-2-2-2-2-|

D|-------------------------------------------------------------------------|
A|-------------------------------------------------------------------------|
F|-------------------------------------------------------------------------|
C|-8-8-8-8-8-8-8-8-8-8-8-8-8-8-8-8-10-10-10-10-10-10-10-10-7-7-7-7-7-7-7-7-|
G|-8-8-8-8-8-8-8-8-8-8-8-8-8-8-8-8-10-10-10-10-10-10-10-10-7-7-7-7-7-7-7-7-|
C|-8-8-8-8-8-8-8-8-8-8-8-8-8-8-8-8-10-10-10-10-10-10-10-10-7-7-7-7-7-7-7-7-|


D|-----------------------------------------------------------------|
A|-----------------------------------------------------------------|
F|-----------------------------------------------------------------|
C|-5-5-5-5-5-5-5-5-5-5-5-5-5-5-5-5-2-2-2-2-2-2-2-2-2-2-2-2-2-2-2-2-|
G|-5-5-5-5-5-5-5-5-5-5-5-5-5-5-5-5-2-2-2-2-2-2-2-2-2-2-2-2-2-2-2-2-|
C|-5-5-5-5-5-5-5-5-5-5-5-5-5-5-5-5-2-2-2-2-2-2-2-2-2-2-2-2-2-2-2-2-|

D|----------------------------------------------------------------------|
A|----------------------------------------------------------------------|
F|----------------------------------------------------------------------|
C|--8888888888888888-10101010101010101010101010101010-7777777777777777--|
G|--8888888888888888-10101010101010101010101010101010-7777777777777777--|
C|--8888888888888888-10101010101010101010101010101010-7777777777777777--|

End on:

D|--------|
A|--------|
F|--------|
C|---2~~--|
G|---2~~--|
C|---2~~--|
            
Submit corrections

comments powered by Disqus
↑ Back to top | Madina Lake Tabs for Me Vs The World. Lyrics for acoustic guitar and electric guitar. Tablatures and chords are parodies/interpretations of the original songs. You may use it for private study, scholarship, research or language learning purposes only