>
 >
Lets Get Outta Here 1

Lets Get Outta Here 1 Guitar Tabs

Madina Lake - Lets Get Outta Here 1 chords, tabs, tablatures, lyrics

Guitar lessons | Add/correct | Request | Top 50 tabs Artists:  A B C D E F G H I J K L M N O P Q R S T U V W X Y Z 0-9

Lets Get Outta Here 1 Guitar Tabs – Madina Lake

CD, Sheet music, Poster

Do you like Lets Get Outta Here 1? Share with your friends now
Tabs
Madina lake - Let's get outta here

This is my first ever TAB but I've found only one other tab of this song and it 
was all power chords
So I decided to transpose it into standard tuning with bar chords because I am 
morally against power chords.
It's basically just G, F#, A#, C and D

Intro Pt 1
E|-----------------------|-----------------------|
B|-----------------------|-----------------------|
G|-----------------------|-----------------------|
D|--h8--p5--h12--p5------|--h7--p4--h12--p4------|
A|-------------------x4--|-------------------x4--|

Intro Pt 2
E|--3-3-0-4-----3-3---------3---|--3-3---3-----3-3---3-----3--6---|
B|--3-3-0-3-----3-3---3-----3---|--3-3---3-----3-3---3-----3--6---|
G|--4-4-0-4-----4-4---4-----3---|--4-4---4-----4-4---4-----4--7---|
D|--5-5-0-5---0-5-5-0-5---0-----|--5-5-0-5---0-5-5-0-5---0-5-/8---|
A|--5-5-0-5---0-5-5-0-5---0-----|--5-5-0-5---0-5-5-0-5---0-5-/8---|
E|--3-3-0-3---0-3-3-0-3---0-----|--3-3-0-3---0-3-3-0-3---0-3-/6---|

E|--2-2---2-----2-2---2-----3---|--2-2---2-----2--0-0-0-2---|
B|--2-2---2-----2-2---2-----3---|--2-2---2-----2--0-0-0-2---|
G|--3-3---3-----3-3---3-----3---|--3-3---3-----3--3-3-3-3---|
D|--4-4-0-4---0-4-4-0-4---0-----|--4-4-0-4---0-4--2-2-2-4---|
A|--4-4-0-4---0-4-4-0-4---0-----|--4-4-0-4---0-4--2-2-2-4---|
E|--2-2-0-2---0-2-2-0-2---0-----|--2-2-0-2---0-2--0-0-0-2---|

Verse 1
E|--3-3---3----------3-3---3-----|--2-2---2---------2-2---2-----|
B|--3-3---3----------3-3---3-----|--2-2---2---------2-2---2-----|
G|--4-4---4---3------4-4---4-----|--3-3---3--2------3-3---3-----|
D|--5-5-0-5----------5-5-0-5-----|--4-4-0-4---------4-4-0-4-----|
A|--5-5-0-5----------5-5-0-5-----|--4-4-0-4---------4-4-0-4-----| x2
E|--3-3-0-3----------3-3-0-3-----|--2-2-0-2---------2-2-0-2-----|

Interlude 1
E|-3-------6-------8--------10----|
B|-3-------6-------8--------10----|
G|-4-x16---7--X16--9--------11----| 
D|-5------/8------/10---X8--12\0--|
A|-5------/8------/10-------12\0--|
E|-3------/6------/8--------10\0--|

Chorus Pt 1
E|-3-3---3-----3-3----3-3---3-----3-3--6--8--8----8-------8--8--10---------|
B|-3-3---3-----3-3----3-3---3-----3-3--6--8--8----8-------8--8--10---------|
G|-4-4---4-3---4-4----4-4---4--3--4-4--7--9--9----9-------9--9--11---------|
D|-5-5-0-5-----5-5-0--5-5-0-5-----5-5-/8-/10-10-0-10--8---10-10-12-0000-003|
A|-5-5-0-5-----5-5-0--5-5-0-5-----5-5-/8-/10-10-0-10------10-10-12-0000-003|
E|-3-3-0-3-----3-3-0--3-3-0-3-----3-3-/6-/8--8--0-8-------8--8--10-0000-003|

Chorus Pt 2
E|-33-3--33-3--33-6606-06606-066-8-8--08--08-8--08--08-8--1010101010101010|
B|-33-3--33-3--33-6606-06606-066-8-8--08--08-8--08--08-8--1010101010101010|
G|-44-4--4404--44-7707-07707-077-9-9--09--09-9--09--09-9--1111111111111111|
D|-5505-05505-055-8808-08808-088-1010-010-01010-010-01010-1212121212121212|
A|-5505-05505-055-8808-08808-088-1010-010-01010-010-01010-1212121212121212|
E|-3305-03303-033-6606-06606-066-9-9--09--09-9--09--09-9--1010101010101010|

Repeat Intro Pt 2 
Repeat Verse

Interlude 2
E|-3-----------6-----------8------------10-------------|
B|-3-----------6-----------8------------10-------------|
G|-4-----------7-----------9------------11-------------|
D|-5-----------8-----------10-----------12----------xx-|
A|-5-----------8-----------10-----------12----------xx-|
E|-3-----------6-----------8------------10----------xx-|

Repeat Chorus
Repeat Intro Pt 2 twice
No guitar until last chorus
Finish with Chorus





Comments


Popular Madina Lake tabs & chords
Imagineer Bass Tabs
House Of Cards Chords
Never Walk Alone Chords
Stars Chords
Statistics Chords
Stars Tabs
Statistics Tabs
Escape From Here Ukulele
Here I Stand Ukulele
Now Or Never Ukulele


Song lyrics



↑ Back to top | Tablatures and chords are parodies/interpretations of the original songs. You may use it for private study, scholarship, research or language learning purposes only
© 2014 AZChords.com Contact us | Privacy policy | DMCA | Add/correct tabs | Request tabs | Top 50 tabs