» » »

Let's Get Outta Here Tabs (ver.1)

Artists:  A B C D E F G H I J K L M N O P Q R S T U V W X Y Z # 

Let's Get Outta Here Tabs (ver.1)

Madina Lake
Rating:
0/5 (0 votes)

Hard to play? Try these video lessons and learn fast.
                Artist - Madina lake
Song - Let's get outt here

/ - Slide up
\ - Slide down
p - Pull off
h - Hammer on
* - Mute note (displayed above note)
o - Play note/s With whammy/octave pedal set to two octaves up.

Pedals need - Distortion pedal, whammy/octave pedal

Intro riff 1

E|-----------------------|-----------------------|
B|-----------------------|-----------------------|
G|-----------------------|-----------------------|
D|--h8--p5--h12--p5------|--h7--p4--h12--p4------|
A|-------------------x4--|-------------------x4--|
D|-----------------------|-----------------------|
(Tip - The trick is to use the middle finger of your pick hand to hammer on
the notes played on the 7th, 8th and 12th fret and to just hold the notes
on the 4th and 5th fret with your other hand. See beginning of vid to
understand)

Intro riff 2
                            o
E|--------------------------3---|---------------------------------|
B|--------------------------3---|---------------------------------|
G|--------------------------3---|---------------------------------|
D|--5-5-0-5---0-5-5-0-5---0-----|--5-5-0-5---0-5-5-0-5---0-5-/8---|
A|--5-5-0-5---0-5-5-0-5---0-----|--5-5-0-5---0-5-5-0-5---0-5-/8---|
D|--5-5-0-5---0-5-5-0-5---0-----|--5-5-0-5---0-5-5-0-5---0-5-/8---|

                            o
E|--------------------------3---|---------------------------|
B|--------------------------3---|---------------------------|
G|--------------------------3---|---------------------------|
D|--4-4-0-4---0-4-4-0-4---0-----|--4-4-0-4---0-4--2-2-2-4---|
A|--4-4-0-4---0-4-4-0-4---0-----|--4-4-0-4---0-4--2-2-2-4---|
D|--4-4-0-4---0-4-4-0-4---0-----|--4-4-0-4---0-4--2-2-2-4---|


Verse 1

E|-------------------------------|------------------------------|
B|-------------------------------|------------------------------|
G|------------3------------------|-----------2------------------|
D|--5-5-0-5----------5-5-0-5-----|--4-4-0-4---------4-4-0-4-----|
A|--5-5-0-5----------5-5-0-5-----|--4-4-0-4---------4-4-0-4-----| x2
D|--5-5-0-5----------5-5-0-5-----|--4-4-0-4---------4-4-0-4-----|


Interlude 1
   **************** **************** *  *  *  *
E|-----------------------------------------------------------------|
B|-----------------------------------------------------------------|
G|-----------------------------------------------------------------|
D|-5555555555555555/8888888888888888/10-10-10-10-10-10-10-10-12\0--|
A|-5555555555555555/8888888888888888/10-10-10-10-10-10-10-10-12\0--|
D|-5555555555555555/8888888888888888/10-10-10-10-10-10-10-10-12\0--|


Verse 2

E|-------------------------------------------------------------------------|
B|-------------------------------------------------------------------------|
G|---------3-------------------3-------------------------------------------|
D|-5-5-0-5-----5-5-0--5-5-0-5-----5-5-/8-/10-10-0-10--8---10-10-12-0000-003|
A|-5-5-0-5-----5-5-0--5-5-0-5-----5-5-/8-/10-10-0-10------10-10-12-0000-003|
D|-5-5-0-5-----5-5-0--5-5-0-5-----5-5-/8-/10-10-0-10------10-10-12-0000-003|


Chorus 1

E|-----------------------------------------------------------------------|
B|-----------------------------------------------------------------------|
G|-----------------------------------------------------------------------|
D|-5505-05505-055-8808-08808-088-1010010-01010010-01010-1212121212121212-|
A|-5505-05505-055-8808-08808-088-1010010-01010010-01010-1212121212121212-|
D|-5505-05505-055-8808-08808-088-1010010-01010010-01010-1212121212121212-|

after chorus

E|--------------------------|
B|--------------------------|
G|-----------3--------------|
D|--------------------------|
A|--------------------------| x4
D|--5-5-0-5--------5--5--0--|

Verse 3

E|-------------------------------|------------------------------|
B|-------------------------------|------------------------------|
G|------------3------------------|-----------2------------------|
D|--5-5-0-5----------5-5-0-5-----|--4-4-0-4---------4-4-0-4-----|
A|--5-5-0-5----------5-5-0-5-----|--4-4-0-4---------4-4-0-4-----| x2
D|--5-5-0-5----------5-5-0-5-----|--4-4-0-4---------4-4-0-4-----|


Interlude 2
E|-----------------------------------------------------|
B|-----------------------------------------------------|
G|-----------------------------------------------------|
D|-5----------/8----------/10----------/12----------xx-|
A|-5----------/8----------/10----------/12----------xx-|
D|-5----------/8----------/10----------/12----------xx-|


Verse 4

E|-------------------------------------------------------------------------|
B|-------------------------------------------------------------------------|
G|---------3-------------------3-------------------------------------------|
D|-5-5-0-5-----5-5-0--5-5-0-5-----5-5-/8-/10-10-0-10--8---10-10-12-0000-003|
A|-5-5-0-5-----5-5-0--5-5-0-5-----5-5-/8-/10-10-0-10------10-10-12-0000-003|
D|-5-5-0-5-----5-5-0--5-5-0-5-----5-5-/8-/10-10-0-10------10-10-12-0000-003|


Chorus 2

E|-----------------------------------------------------------------------|
B|-----------------------------------------------------------------------|
G|-----------------------------------------------------------------------|
D|-5505-05505-055-8808-08808-088-1010010-01010010-01010-1212121212121212-|
A|-5505-05505-055-8808-08808-088-1010010-01010010-01010-1212121212121212-|
D|-5505-05505-055-8808-08808-088-1010010-01010010-01010-1212121212121212-|


after chorus (same as intro riff 2)

E|--------------------------3---|---------------------------------|
B|--------------------------3---|---------------------------------|
G|--------------------------3---|---------------------------------|
D|--5-5-0-5---0-5-5-0-5---0-----|--5-5-0-5---0-5-5-0-5---0-5-/8---|
A|--5-5-0-5---0-5-5-0-5---0-----|--5-5-0-5---0-5-5-0-5---0-5-/8---|
D|--5-5-0-5---0-5-5-0-5---0-----|--5-5-0-5---0-5-5-0-5---0-5-/8---|

                            o
E|--------------------------3---|---------------------------|
B|--------------------------3---|---------------------------|
G|--------------------------3---|---------------------------|
D|--4-4-0-4---0-4-4-0-4---0-----|--4-4-0-4---0-4--2-2-2-4---|
A|--4-4-0-4---0-4-4-0-4---0-----|--4-4-0-4---0-4--2-2-2-4---| x2
D|--4-4-0-4---0-4-4-0-4---0-----|--4-4-0-4---0-4--2-2-2-4---|


No guitar until last chorus


End Verse

E|-------------------------------------------------------------------------|
B|-------------------------------------------------------------------------|
G|---------3-------------------3-------------------------------------------|
D|-5-5-0-5-----5-5-0--5-5-0-5-----5-5-/8-/10-10-0-10--8---10-10-12-0000-003|
A|-5-5-0-5-----5-5-0--5-5-0-5-----5-5-/8-/10-10-0-10------10-10-12-0000-003|
D|-5-5-0-5-----5-5-0--5-5-0-5-----5-5-/8-/10-10-0-10------10-10-12-0000-003|


Chorus 3

E|-----------------------------------------------------------------------|
B|-----------------------------------------------------------------------|
G|-----------------------------------------------------------------------|
D|-5505-05505-055-8808-08808-088-1010010-01010010-01010-1212121212121212-|
A|-5505-05505-055-8808-08808-088-1010010-01010010-01010-1212121212121212-|
D|-5505-05505-055-8808-08808-088-1010010-01010010-01010-1212121212121212-|
                                                                         x2


This is the best i can do at the moment so i hope it helps. Cheers Steveo3po
            
Hard to play? Try these video lessons and learn fast. | Correct




comments powered by Disqus
↑ Back to top | Tablatures and chords are parodies/interpretations of the original songs. You may use it for private study, scholarship, research or language learning purposes only