» » »

Tribe Bass tabs (ver.2)

Artists:  A B C D E F G H I J K L M N O P Q R S T U V W X Y Z # 

Tribe Bass tabs (ver.2)

Mad Capsule Markets
Rating:
0/5 (0 votes)

Tabs too difficult? Try these video lessons and learn fast.
                (2)
Pre-Verse
G----------
D----------
A----------
E----------
B-0*-------

Chorus
G--------------------
D--------------------
A--------------------
E-0-0-2h3------------
B--------------------

Post Chorus
G--------------------
D--------------------
A--------------------
E-2-2-4H5------------
B--------------------

Bridge
G--------------------
D--------------------
A--------------------
E--------------------
B-0*--0*--0*--0*-----

Solo 1
G----4/16------------
D--------------------
A--------------------
E--------------------
B-0*-----------------

Solo 2
G-16-15-14------------
D---------16-14-12----
A------------------14-
E---------------------
B---------------------

Order:
Pre-Verse x1
Chorus x8
Pre Verse x1
Chorus x8
Pre Verse x2 (hold for longer first time)
Chorus x16
Post Chorus x16
Bridge x8
Chorus x16
Solo 1 x8
Solo 2 x8
Pre Verse x1
Chorus x16
Post CHorus x16

enjoi.
            
Tabs too difficult? Try these video lessons and learn fast.




comments powered by Disqus
↑ Back to top | Tablatures and chords are parodies/interpretations of the original songs. You may use it for private study, scholarship, research or language learning purposes only