» » »

Tribe Tabs (ver.1)

Artists:  A B C D E F G H I J K L M N O P Q R S T U V W X Y Z # 

Tribe Tabs (ver.1)

Mad Capsule Markets
Rating:
0/5 (0 votes)

Hard to play? Try these video lessons and learn fast.
                tuning  b f# b e g# c#

|--------------|
|--------------|
|--------------|
|--------------|
|--0-----------|
|--0-----------|

|---------------|
|---------------|
|---------------|
|---------------|
|--0-2--2-3-----|
|--0-2--2-3-----|

|---------------|
|--------^------|
|--------7------|
|--------0------|
|--0-0----------|
|--0-0----------|

|--16---15-14-----------------|
|-------------16-15-14--------|
|-----------------------16-13-|
|-----------------------------|
|-----------------------------|
|-----------------------------|
            
Hard to play? Try these video lessons and learn fast. | Correct




comments powered by Disqus
↑ Back to top | Tablatures and chords are parodies/interpretations of the original songs. You may use it for private study, scholarship, research or language learning purposes only