>
 >
Island

Island Guitar Tabs

Mad Capsule Markets - Island chords, tabs, tablatures, lyrics

Guitar lessons | Add/correct | Request | Top 50 tabs Artists:  A B C D E F G H I J K L M N O P Q R S T U V W X Y Z 0-9

Island Guitar Tabs – Mad Capsule Markets

CD, Sheet music, Poster

Do you like Island? Share with your friends now
TabsTabs v2Tabs v3
THE MAD CAPSULE MARKETS – OSC-DIS - ISLAND

EADGBE - STANDARD TUNING


MAIN VERSE RIFF
 |-----------------------------------------------------------------------------------------|
 |--5-----7-----9(~~~~~)7(~~~~~)-----ONLY PLAY THE BRACKETS ON THE SECOND BAR OF THE INTRO-|
 |----6-----7-----9(~~~~~)7(~~~~~)---------------------------------------------------------|
 |------7-----7-----9(~~~~~)7(~~~~~)-------------------------------------------------------|
 |-----------------------------------------------------------------------------------------|
 |-----------------------------------------------------------------------------------------|
THIS IS HOW TORU PLAYS IT LIVE, I FOUND A DIFFERENT WAY WHICH IS SLIGHTLY EASIER…
 |--0-----2-----4-----2--------------------------------------------------------------------|
 |----2-----3-----5-----3------------------------------------------------------------------|
 |------2-----2-----4-----2----------------------------------------------------------------|
 |-----------------------------------------------------------------------------------------|
 |-----------------------------------------------------------------------------------------|
 |-----------------------------------------------------------------------------------------|

ALT MAIN RIFF
 |-----------------------------------------------------------------------------------------|
 |------5~~~~~~~7~~~~~~~9~~~~~~~7~~~~~~~---------------------------------------------------|
 |----6~~~5~~~7~~~7~~~9~~~9~~~7~~~7~~~~~---------------------------------------------------|
 |--7~~~~~~~7~~~~~~~9~~~~~~~7~~~~~~~~~~~---------------------------------------------------|
 |-----------------------------------------------------------------------------------------|
 |-----------------------------------------------------------------------------------------|
AFTER A FEW BARS COMING UP TO THE VERSE BREAK THE NOTES STAY ALIKE APART FROM THE ORDER
YOU PICK THEM FROM IS CHANGED AND LET THEM RING, I ALO ADDED A NOTE IT SOUNDS BETTER.

MAIN VERSE RIFF X8
ALT MAIN RIFF X 2

MAIN VERSE RIFF X2
ALT MAIN RIFF X4 (WHISTLING SECTION)

MAIN VERSE RIFF X4
ALT VERSE RIFF X2

THEN IT GOES…
 |-----------------------------------------------------------------------------------------|
 |--5-----7--------------------------------------------------------------------------------|
 |----6-----7---9-9-99---------------------------------------------------------------------|
 |------7-----7-7-7-77---------------------------------------------------------------------|
 |--------------7-7-77---------------------------------------------------------------------|
 |-----------------------------------------------------------------------------------------|

HARDCORE RIFF
 |-----------------------------------------------------------------------------------------|
 |-----------------------------------------------------------------------------------------|
 |-----------------------------------------------------------------------------------------|
 |--7-7-7-7-7-7-7-7-8-8--------------------------------------------------------------------|
 |--7-7-7-7-7-7-7-7-6-6--------------------------------------------------------------------|
 |--5-5-5-5-5-5-5-5-6-6--------------------------------------------------------------------|X4

HARDCORE RIFF PRT2
 |-----------------------------------------------------------------------------------------|
 |-----------------------------------------------------------------------------------------|
 |-----------------------------------------------------------------------------------------|
 |------------------8-8--------------------------------------------------------------------|
 |--6/7-6/7-6/7-6/7-6-6--------------------------------------------------------------------|
 |--4/5-4/5-4/5-4/5-6-6--------------------------------------------------------------------|X4

HARCDORE RIFF X3
THEN…
 |-----------------------------------------------------------------------------------------|
 |-----------------------------------------------------------------------------------------|
 |-----------------------------------------------------------------------------------------|
 |--7-7-7-7-7-7-7-7-8-8-7~~~~~~~~~~~~~~~~~~~~~~~~~~----------------------------------------|
 |--7-7-7-7-7-7-7-7-6-6-7~~~~~~~~~~~~~~~~~~~~~~~~~~----------------------------------------|
 |--5-5-5-5-5-5-5-5-6-6-5~~~~~~~~~~~~~~~~~~~~~~~~~~----------------------------------------|

BREAKDOWN RIFF
 |-----------------------------------------------------------------------------------------|
 |-----------------------------------------------------------------------------------------|
 |-----------------------------------------------------------------------------------------|
 |-------7-7-7-7-7-7-9-9-9-7-7-7-----------------------------------------------------------|
 |-X/////7-7-7-5-5-5-7-7-7-5-5-5-----------------------------------------------------------|
 |-X/////5-5-5-5-5-5-7-7-7-5-5-5-----------------------------------------------------------|X8
(PICKSLIDE)

ALT BREAKDOWN RIFF
 |-----------------------------------------------------------------------------------------|
 |-----------------------------------------------------------------------------------------|
 |-----------------------------------------------------------------------------------------|
 |--7-7-7-7~~-7-7-7-7~~-9-9-9-9~~-7-7-7-7~~------------------------------------------------|
 |--7-7-7-7~~-5-5-5-5~~-7-7-7-7~~-5-5-5-5~~------------------------------------------------|
 |--5-5-5-5~~-5-5-5-5~~-7-7-7-7~~-5-5-5-5~~------------------------------------------------|X2
   PMPMPM    PMPMPM    PMPMPM    PMPMPM

BREAKDOWN RIFF X1
THEN…
 |-----------------------------------------------------------------------------------------|
 |-----------------------------------------------------------------------------------------|
 |-------------9-9-99----------------------------------------------------------------------|
 |-7-7-7-7-7-7-7-7-77----------------------------------------------------------------------|
 |-7-7-7-5-5-5-7-7-77----------------------------------------------------------------------|
 |-5-5-5-5-5-5-----------------------------------------------------------------------------|

HARDCORE RIFF X4
HARDCORERIFF PRT2 X 4
HARDCORE RIFF X 5
THEN…
 |-----------------------------------------------------------------------------------------|
 |-----------------------------------------------------------------------------------------|
 |-----------------------------------------------------------------------------------------|
 |--7-7-7-7-7-7-7-7-8-8-7~~~~~~~~~~~~~~~~~~~~~~~~~~----------------------------------------|
 |--7-7-7-7-7-7-7-7-6-6-7~~~~~~~~~~~~~~~~~~~~~~~~~~----------------------------------------|
 |--5-5-5-5-5-5-5-5-6-6-5~~~~~~~~~~~~~~~~~~~~~~~~~~----------------------------------------|

MAIN RIFF REPEAT UNTIL FADE

ON THE 7TH BAR SOLO COMES IN WITH…
SOLO########################################################STUDIO VERSION#################
 |-----------------------------------------------------------------------------------------|
 |-------------9---------------------------------------------------------------------------|
 |-----6---7-9---9--9--7h9p7-6-------------------------------------------------------------|
 |--/7---7---------------------7--7-6h7p6--------------------------------------------------|
 |----------------------------------------7------------------------------------------------|
 |-----------------------------------------------------------------------------------------|

 |-----------------------------------------------------------------------------------------|
 |-----------------------------------------------------------------------------------------|
 |--/6---6-7-6---7-6---6-7-6---7-6---6-7-6---7-9BEND---------------------------------------|
 |-----7-------------7-------------7-------------------------------------------------------|
 |-----------------------------------------------------------------------------------------|
 |-----------------------------------------------------------------------------------------|

 |--////17171717171717171717171717171717-19-171717171717171717171717171717-16--------------|
 |------------------(17’S)-----------------------------------------------------------------|
 |-----------------------------------------------------------------------------------------|
 |-----------------------------------------------------------------------------------------|
 |-----------------------------------------------------------------------------------------|
 |-----------------------------------------------------------------------------------------|

 |--////17171717171717171717171717171717-212121212121-1717171717171717171717 (FADE OUT)----|
 |------------------(17’S)-----------------(21’S)------------------------------------------|
 |-----------------------------------------------------------------------------------------|
 |-----------------------------------------------------------------------------------------|
 |-----------------------------------------------------------------------------------------|
 |-----------------------------------------------------------------------------------------|
THAT WAS MY FIRST ATTEMPT AT TABBING A SOLO SO FEEDBACK IS VERY WELCOME INDEED.
I WANT TO GET IT PERFECT.
###########################################################################################

HOWEVER WHEN PLAYED LIVE IT GOES…
SOLO#############################################################LIVE VERSION##############
 |-----------------------------------------------------------------------------------------|
 |-------------9---------------------------------------------------------------------------|
 |-----6---7-9---9--9--7h9p7-6-------------------------------------------------------------|
 |--/7---7---------------------7--7-6h7p6--------------------------------------------------|
 |----------------------------------------7------------------------------------------------|
 |-----------------------------------------------------------------------------------------|

 |-----------------------------------------------------------------------------------------|
 |-----------------------------------------------------------------------------------------|
 |--/6---6--7---7-6---6---7---7-6---6-7---7-9BEND------------------------------------------|
 |-----7--7---7-----7---7---7-----7-----7--------------------------------------------------|
 |-----------------------------------------------------------------------------------------|
 |-----------------------------------------------------------------------------------------|

 |--////17171717171717171717171717171717-19-171717171717171717171717171717-16--------------|
 |------------------(17’S)-----------------------------------------------------------------|
 |-----------------------------------------------------------------------------------------|
 |-----------------------------------------------------------------------------------------|
 |-----------------------------------------------------------------------------------------|
 |-----------------------------------------------------------------------------------------|

 |--////17171717171717171717171717171717-19-171717171717171717171717171717-21212121212121--|
 |------------------(17’S)----------------------------------------------------(12’S)-------|
 |-----------------------------------------------------------------------------------------|
 |-----------------------------------------------------------------------------------------|
 |-----------------------------------------------------------------------------------------|
 |-----------------------------------------------------------------------------------------|

 |-----------------------------------------------------------------------------------------|
 |-------------9---------------------------------------------------------------------------|
 |-----6---7-9---9--9--7h9p7-6-------------------------------------------------------------|
 |--/7---7---------------------7--7-6h7p6--------------------------------------------------|
 |----------------------------------------7------------------------------------------------|
 |-----------------------------------------------------------------------------------------|

 |-----------------------------------------------------------------------------------------|
 |-------------------------5~~~~~7~~~~~~9~-------------------------------------------------|
 |--/6---6---6---7-------6~~~~~7~~~~~~9~~~-------------------------------------------------|
 |-----7---7-------7---7~~~~~7~~~~~~9~~~~7~~~~~~~~~~~~~~~~~~~~~7\\\\\2---------------------|
 |---------------------------------------7~~~~~~~~~~~~~~~~~~~~~7\\\\\2---------------------|
 |---------------------------------------5~~~~~~~~~~~~~~~~~~~~~5\\\\\0---------------------|
###########################################################################################
THANK YOU.
-CHRIS.





Comments


Popular Mad Capsule Markets tabs & chords
Be Silent ***Ing System Bass Tabs
Be Silent Fucking System Bass Tabs
Crack Bass Tabs
Kumo Bass Tabs
Midi Surf 1 Bass Tabs
Tribe 2 Bass Tabs
All The Time In Sunny Beach Chords
Island 2 Tabs
Midi Surf Tabs
Pulse Tabs


Song lyrics



↑ Back to top | Tablatures and chords are parodies/interpretations of the original songs. You may use it for private study, scholarship, research or language learning purposes only
© 2014 AZChords.com Contact us | Privacy policy | DMCA | Add/correct tabs | Request tabs | Top 50 tabs