» » »

Mad Capsule Markets, Island Tabs (ver.3)

Artists:  A B C D E F G H I J K L M N O P Q R S T U V W X Y Z # 

Island Tabs (ver.3)

Mad Capsule Markets Tabs
 Rating:
4.2/5 (5 votes)
Island lessons Tabs too difficult? Try these video lessons and learn fast
1
                                      Mad Capsule Markets - Island
                                OSC- DIS


Intro/Verse                                                                        
E-----------------------------------------------------|-----------------
B-----------------------------------------------------|-----------------
G---9-----------11-----------13-------------11--------|-----------------
D------7------------9------------11-------------9-----|-----------------
A---------7------------9-------------11------------9--|-----------------
D-----------------------------------------------------|-----------------
                                                                        

Chorus: "Well, I think I..."                                                                        
E-----------------------------------------------------|-----------------
B-----------------------------------------------------|-----------------
G---------9-----------11-------------13-----------11--|-----------------
D------7-----------9-------------11------------9------|-----------------
A---7-----------9------------11-------------9---------|-----------------
D-----------------------------------------------------|-----------------
                                                                        

Bridge 0:52                                                                        
E---------------------------------------------------|-------------------
B---------------------------------------------------|-------------------
G---------------------------------------------------|-------------------
D---------7-----------9-------------11-----------9--|-------------------
A------7-----------9------------11------------9-----|-------------------
D---7-----------9-----------11-------------9--------|-------------------
                                                                        

Bridge 2                      2:04  Bridge 3 2:07                                                
E---------------------------|------|----------------------------|--------
B---------------------------|------|----------------------------|--------
G---------------------------|------|----------------------------|--------
D---2--2--2--2--2--2--1--1--|--7*--|--7--7--9--9--11--11--9--9--|--------
A---2--2--2--2--2--2--1--1--|--7*--|--7--7--9--9--11--11--9--9--|--------
D---2--2--2--2--2--2--1--1--|--7*--|--7--7--9--9--11--11--9--9--|--------
                                                                        

 Outro/Solo                                                                       
E-----------------------------------------------------------------------
B--------------------9--7----------------------------------9------------
G---------------7h9--------7h9p7---------------------7--9-----9--7------
D---7-----11p7--------------------7-----6h7p6-----7---------------------
A-----------------------------------------------------------------------
D-----------------------------------------------------------------------
                                                                        

                                                                        
E-------/17--17--17--17--17--17--19--17--17--17--17--17--17--|----------
B--------17--17--17--17--17--17--19--17--17--17--17--17--17--|----------
G------------------------------------------------------------|----------
D---7--------------------------------------------------------|----------
A------------------------------------------------------------|----------
D------------------------------------------------------------|----------
                                                                        

Order:

Intro/Verse x10
Chorus x2
Intro/Verse x2
Bridge x4
Intro/Verse x4
Chorus x2
Intro/Verse x1
Bridge 2 x12
2:04 x1
Bridge 3 x11
Bridge 2 x14
Intro/Verse (Repeat to End)
Outro/Solo
            
Submit corrections

comments powered by Disqus
↑ Back to top | Mad Capsule Markets Tabs for Island. Lyrics for acoustic guitar and electric guitar. 1 Tablatures and chords are parodies/interpretations of the original songs. You may use it for private study, scholarship, research or language learning purposes only