» » »

Weird Beard Bass tabs (ver.1)

Artists:  A B C D E F G H I J K L M N O P Q R S T U V W X Y Z # 

Weird Beard Bass tabs (ver.1)

Mad Caddies
Rating:
0/5 (0 votes)

Hard to play? Try these video lessons and learn fast.
                intro
E-------------- (triplet)-------
A----------------/---\---
D---5--0---5---0-2-3------x4--
G-----------------------------

verses
E-------------------------------------------------------------
A--------------------------------------------------------/---\-
D---5--0--5--0--5--0--0--7--0--7--0--7--0--7--5--0-2-3--------
G-------------------------------------------------------------

chorus
E----------------------------------------------------------------------
A----------------------------------------------------------------------
D--------5>>>----------5>>>----------------5>>>--------5>>>--------x2--
G----6-5--------66-55---------------4>>>-----------6-5---------------

on third time do this
E---------------------------------------------------
A-----------------/--\--------------------------------
D----/--\---------555--5---------5>>>------------
G----444----4-------------5--5------------------
            
Hard to play? Try these video lessons and learn fast. | Correct




comments powered by Disqus
↑ Back to top | Tablatures and chords are parodies/interpretations of the original songs. You may use it for private study, scholarship, research or language learning purposes only