» » »

Weird Beard Tabs (ver.1)

Artists:  A B C D E F G H I J K L M N O P Q R S T U V W X Y Z # 

Weird Beard Tabs (ver.1)

Mad Caddies
Rating:
0/5 (0 votes)

Hard to play? Try these video lessons and learn fast.
                Mad Caddies

Intro 
           Dm  Dm  Dm

|----------5---5---5--|
|----------6---6---6--|
|----------7---7---7--|
|----------7---7---7--|
|------4-5-5---5-5-5--|
|--5-7-------5--------|

Segue/Verse
             Dm  Dm  Dm  Dm  Dm  Dm

|--------|---5---5---5---5---5---5--|
|--------|---6---6---6---6---6---6--|
|--------|---7---7---7---7---7---7--|
|--------|---7---7---7---7---7---7--|
|------4-|-5-5---5-5-5---5-5-5---5--|
|--5-7---|-----5-------5-------5----|

     Dm  Dm  Dm  Dm  Dm  Dm

|----5---5---5---5---5---5--|
|----6---6---6---6---6---6--|
|----7---7---7---7---7---7--|
|----7---7---7---7---7---7--|
|----5---5---5---5---5---5--|
|--0---5---0---5---0---5----|

Bridge
   Dm A  Dm  F F  A A  Dm  G  A   G  G  Dm  
                                            
|--5--5--5---8-8--5-5--5---3--5---3--3--5--|
|--6--5--6---9-9--5-5--6---3--5---3--3--6--|
|--7--6--7---9-9--6-6--7---4--6---4--4--7--|
|--7--7--7---9-9--7-7--7---5--7---5--5--7--|
|--5--7--5---8-8--7-7--5---5--7---5--5--5--|
|-----5-----------5-5------3--5---3--3-----|

Chorus
   Dm A  Dm  F F  A A  Dm  G  A   G  G  Dm    G G G G  A A A A  G  G  Dm
                                            
|--5--5--5---8-8--5-5--5---3--5---3--3--5--|--3-3-3-3--5-5-5-5--3--3--5--|
|--6--5--6---9-9--5-5--6---3--5---3--3--6--|--3-3-3-3--5-5-5-5--3--3--6--|
|--7--6--7---9-9--6-6--7---4--6---4--4--7--|--4-4-4-4--6-6-6-6--4--4--7--|
|--7--7--7---9-9--7-7--7---5--7---5--5--7--|--5-5-5-5--7-7-7-7--5--5--7--|
|--5--7--5---8-8--7-7--5---5--7---5--5--5--|--5-5-5-5--7-7-7-7--5--5--5--|
|-----5-----------5-5------3--5---3--3-----|--3-3-3-3--5-5-5-5--3--3-----|
            
Hard to play? Try these video lessons and learn fast. | Correct




comments powered by Disqus
↑ Back to top | Tablatures and chords are parodies/interpretations of the original songs. You may use it for private study, scholarship, research or language learning purposes only