» » »

Mad Caddies, S.O.S Tabs (ver.2)

Artists:  A B C D E F G H I J K L M N O P Q R S T U V W X Y Z # 

S.O.S Tabs (ver.2)

Mad Caddies Tabs
Rating:
0/5 (0 votes)
S.O.S lessons Tabs too difficult? Try these video lessons and learn fast
                "(1)

Intro:
E---------------------------------------------1------1------|
B--10-10-8-8-6--6-6-5-5-3--3-3-1-1--------------------------|
G--10-10-9-9-7--7-7-5-5-3--3-3-2-2-3-3-2---2----2/3----3/2--|
D----------------------------------5-5-0--------------------|
A-----------------------------------------------------------|
E-----------------------------------------------------------|2X

Where are those happy times - they seem so hard to find.
I try to reach for you but you have closed your mind.
|-5-5-5-|
|-6-5-6-|
|-7-6-7-|
|-7-5-7-|
|-5-7-5-|
|---5---|2x
Dm A7 Dm

Whatever happened to our love?  I wish I understood.
It used to be so nice, it used to be so good.
|--1--3--3--5--5--5--5-|
|--1--5--3--6--6--5--6-|
|--2--5--3--7--7--6--7-|
|--3--5--5--7--7--5--7-|
|--3--3--5--5--5--7--5-|
|--1-----3--------5----|2X
   F  C  Gm Dm Dm A7 Dm

(this part is after ...it used to be so good.)
|--------------------|
|--------------------|
|-7-5-7-9-11-12-11-9-|
|-7-5-7-9-11-12-11-9-|
|-5-3-5-7-9--10-9--7-|
|--------------------|(one time)

So when you're near me, darling can't you hear me, SOS
The love you gave, nothing less can save me, SOS
|-1-3-3--1--1-1-1-1-|
|-1-5-3--3--1-1-1-1-|
|-2-5-3--3--2-3-2-3-|
|-3-5-5--3--3-3-3-3-|
|-3-3-5--1--3-3-3-3-|
|-1---3-----1-1-1-1-|
  F C Gm Bm F/Fsus4/F/Fsus4

When you're gone, how can I even try to go on?
When you'ge gone, though I try how can I carry on?
|-1--4--6--1-|
|-3--6--8--1-|
|-3--6--8--2-|
|-3--6--8--3-|
|-1--4--6--3-|
|----------1-|
  Bb Db Eb F
"            
Submit corrections

comments powered by Disqus
↑ Back to top | Mad Caddies Tabs for S.O.S. Lyrics for acoustic guitar and electric guitar. Tablatures and chords are parodies/interpretations of the original songs. You may use it for private study, scholarship, research or language learning purposes only