» » »

Mad Caddies, Preppie Girl Tabs (ver.2)

Artists:  A B C D E F G H I J K L M N O P Q R S T U V W X Y Z # 

Preppie Girl Tabs (ver.2)

Mad Caddies Tabs
 Rating:
4/5 (4 votes)
Preppie Girl lessons Tabs too difficult? Try these video lessons and learn fast
1
                			     PREPPIE GIRL - Mad Caddies

  Repeat 5 
e|-------8------------8-------------------------------------------------------|
B|-----8---8--------8---8-------------9--------------8------------------------|
G|---9-------9----9-------9---------8---8----------7---7----------------------|
D|-------------------------------10-------10-----9-------9--------------------|
A|----------------------------11--------------10------------------------------|
E|-8------------8-------------------------------------------------------------|

   end of intro   
e|---------------|
B|---------------|
G|---------------|
D|----6-6-6-5-5--|
A|----6-6-6-5-5--|
E|-8--4-4-4-3-3--|

   Chorus x 3                then this
e|---------------------| |----------------------------------------------------|
B|---------------------| |----------------------------------------------------|
G|-5-5-----------------| |-5-5------------------------------------------------|
D|-5-5-6-6-6-5-5-6-5-6-| |-5-5--6-6-6-5---------------------------------------|
A|-3-3-6-6-6-5-5-6-5-6-| |-3-3--6-6-6-5---------------------------------------|
E|-----4-4-4-3-3-4-3-4-| |------4-4-4-3---------------------------------------|

  Solo
e|-3-6-3-6-3-6-3----3---3---3-------*--3-6-3-6-3-6-3----3---3---3---4-3---3-4-3-|
B|----------------4---4---4---4-3-4-3-----------------4---4---4---3-----4-------|
G|------------------------------------------------------------------------------|
D|------------------------------------------------------------------------------|
A|------------------------------------------------------------------------------|
E|------------------------------------------------------------------------------|

  Verse (Ska Stokes)
e|-3333333333333333---4444444444--3333333333---------------------------------|
B|-1111111111111111---4444444444--3333333333---------------------------------|
G|---------------------------------------------------------------------------|
D|---------------------------------------------------------------------------|
A|---------------------------------------------------------------------------|
E|---------------------------------------------------------------------------|
  
  Outro x 4
e|-------8------------8-------------------------------------------------------|
B|-----8---8--------8---8-------------9--------------8------------------------|
G|---9-------9----9-------9---------8---8----------7---7----------------------|
D|-------------------------------10-------10-----9-------9--------------------|
A|----------------------------11--------------10------------------------------|
E|-8------------8-------------------------------------------------------------|

  end of outro
e|-------8------------8------------------------------------|
B|-----8---8--------8---8---------------*------------------|
G|---9-------9----9-------9-----*---*---5------------------|
D|------------------------------6---5---5------------------|
A|------------------------------6---5---3------------------|
E|-8------------8---------------4---3----------------------|

* means let it ring
            
Submit corrections

comments powered by Disqus
↑ Back to top | Mad Caddies Tabs for Preppie Girl. Lyrics for acoustic guitar and electric guitar. 1 Tablatures and chords are parodies/interpretations of the original songs. You may use it for private study, scholarship, research or language learning purposes only