» » »

Mad Caddies, Days Away Tabs (ver.1)

Artists:  A B C D E F G H I J K L M N O P Q R S T U V W X Y Z # 

Days Away Tabs (ver.1)

Mad Caddies Tabs
 Rating:
4/5 (4 votes)
Days Away lessons Tabs too difficult? Try these video lessons and learn fast
1
                DAYS AWAY by Mad Caddies. Album : Rock the Plank (2001) 1/2 
Quite a simple one with guitar, but the great variety of instruments makes 
it a great song. B guitar is only played (needed) in the intro. 
B=intro guitar (!played with fingers!) 
: 
# intro # Am F 
E-----------------------------------0-------1-------/--palm-muted--\----| 
B-----------------------------------1-------1---------------------------| 
G-----------------------------------2-------2---------------------------| 
D-----------------------------------2-------3-----------------------7\--| 
A-----------------------------------0-------3-------55555555666666667\--| 
E-------------------------------------------1-------33333333444444445\--| 
# intro #B h=hammer-on t=press with thumb 
E---h------------0---------------0---------------0----------------------| 
B---011--1----1----1--1--1----1----1--1--1----1----1--------------------| 
G---2--2---2---2----2--2---2---2----2--2---2---2------------------------| 
D-------------------------------------------------------------------7---| 
A---0---0---t---t---0---0---t---t---0---0---t---t----5-5-5-5-6-6-6-67---| 
E-----------1---1-----------1---1-----------1---1---3-3-3-3-4-4-4-4-5---| 
: Am F Am F Am F 
# into-ska-verse # X=mute 
E----X1X-X1X-X5X-X5X-X1X-X1X-X5X-X5X-X1X-X1X-X3X-X3X-X4X-X4X--| 
B----X1X-X1X-X5X-X5X-X1X-X1X-X5X-X5X-X1X-X1X-X3X-X3X-X4X-X4X--| 
G----X2X-X2X-X5X-X5X-X2X-X2X-X5X-X5X-X2X-X2X-X4X-X4X-X5X-X5X--| 
D----X3X-X3X-X7X-X7X-X3X-X3X-X7X-X7X-X3X-X3X-X5X-X5X-X6X-X6X--| 
A----X3X-X3X-X7X-X7X-X3X-X3X-X7X-X7X-X3X-X3X-X5X-X5X-X6X-X6X--| 
E----X1X-X1X-X5X-X5X-X1X-X1X-X5X-X5X-X1X-X1X-X3X-X3X-X4X-X4X--| 
: F Am F Am F G G# 
# ska-verse # X=mute 
E----X5X-X5X-X1X-X1X-X5X-X5X-X1X-X1X-X5X-X5X-X1X-X1X-X3X-X3X-X4X-X4X--| 
B----X5X-X5X-X1X-X1X-X5X-X5X-X1X-X1X-X5X-X5X-X1X-X1X-X3X-X3X-X4X-X4X--| 
G----X5X-X5X-X2X-X2X-X5X-X5X-X2X-X2X-X5X-X5X-X2X-X2X-X4X-X4X-X5X-X5X--| 
D----X7X-X7X-X3X-X3X-X7X-X7X-X3X-X3X-X7X-X7X-X3X-X3X-X5X-X5X-X6X-X6X--| 
A----X7X-X7X-X3X-X3X-X7X-X7X-X3X-X3X-X7X-X7X-X3X-X3X-X5X-X5X-X6X-X6X--| 
E----X5X-X5X-X1X-X1X-X5X-X5X-X1X-X1X-X5X-X5X-X1X-X1X-X3X-X3X-X4X-X4X--| 
: Am F Am F Am F G G# 
# ska-verse-part2 # X=mute 
E----X5X-X5X-X1X-X1X-X5X-X5X-X1X-X1X-X5X-X5X-X1X-X1X-X3X-X3X-X3X-X3X--| 
B----X5X-X5X-X1X-X1X-X5X-X5X-X1X-X1X-X5X-X5X-X1X-X1X-X5X-X5X-X3X-X3X--| 
G----X5X-X5X-X2X-X2X-X5X-X5X-X2X-X2X-X5X-X5X-X2X-X2X-X5X-X5X-X4X-X4X--| 
D----X7X-X7X-X3X-X3X-X7X-X7X-X3X-X3X-X7X-X7X-X3X-X3X-X5X-X5X-X5X-X5X--| 
A----X7X-X7X-X3X-X3X-X7X-X7X-X3X-X3X-X7X-X7X-X3X-X3X-X3X-X3X-X5X-X5X--| 
E----X5X-X5X-X1X-X1X-X5X-X5X-X1X-X1X-X5X-X5X-X1X-X1X-X-X-X-X-X3X-X3X--| 
: Am F Am F Am F C G 
Then play ska-verseX2. 
: 
# into-chorus # # chorus # !play all notes 3-6X! 
E---0--play-9X| E---0---1---0---1---0---1-----------| 
B---0---------| B---1---1---1---1---1---1-----------| > Then play 
G---1---------| G---2---2---2---2---2---2---5-------| ska-verse-part2X2, 
D---2---------| D---2---3---2---3---2---3---5---5---| ska-verseX2, 
A---2---------| A---0---3---0---3---0---3---3---5---| into-chorus and 
E---0---------| E-------1-------1-------1---3---3---| chorusX2. 
: E Am F Am F Am F C G 
# bridge # *=play 8X palm-muted 
E-----------------| 
B-----------------| 
G------------*----| 
D----*------9-----| 
A---2-------7-----| 
E---0-------------| 
: 
to next page... 
: 
: 
: 
: 
: 
DAYS AWAY 2/2 
: 
# bridge # m=palm-mute > 
E--------------------------------------------------------------------> 
B--------------------------------------------------------------------> 
G-------------------2222222244444444----------------2222222255544444-> 
D---7777777777777777333333335555555577777777777777773333333355555555-> 
A---0000000000000000----------------0000000000000000-----------------> 
E----mm-mm-m-mm-mm-m-mm-mm-m-mm-mm-m-mm-mm-m-mm-mm-m-mm-mm-m----mm-m-> 
bridge 
-------------------2222222244444444----------------222222225554\----| 
---777777777777777733333333555555557777777777777777333333335555\----| 
---0000000000000000----------------0000000000000000-----------------| 
----mm-mm-m-mm-mm-m-mm-mm-m-mm-mm-m-mm-mm-m-mm-mm-m-mm-mm-m---------| 
: 
# chorus3 # X3 *=play 3-6X with pauses #=play 8X !end with first chord! 
E----*-------*-------*--------------| 
B---1-------1-------1--------#------| 
G---2----*--2----*--2----*--5----#--| 
D---2---3---2---3---2---3---5---5---| 
A---0---3---0---3---0---3---3---5---| 
E-------1-------1-------1---3---3---| 
: 
It sure had enough barre-chords!

thanks toby plz rate
            
Submit corrections

comments powered by Disqus
↑ Back to top | Mad Caddies Tabs for Days Away. Lyrics for acoustic guitar and electric guitar. 1 Tablatures and chords are parodies/interpretations of the original songs. You may use it for private study, scholarship, research or language learning purposes only