» » »

Days Away Bass tabs (ver.1)

Artists:  A B C D E F G H I J K L M N O P Q R S T U V W X Y Z # 

Days Away Bass tabs (ver.1)

Mad Caddies
Rating:
0/5 (0 votes)

Hard to play? Try these video lessons and learn fast.
                Intro Part

G:-----------------------|-----------------------------
D:-----------------------|-----------2h3p2-------------
A:-----------------------|-----3---0-------3-------3---
E:-5------1------3>-4>-5-|-1-1---1-----------1-1-1---1-

G:-------------------------------------|
D:-------------------------------------|
A:-----3-7-------3-----------------5-7-|
E:-5-5-----1-1-1---1-3-3-5-3-5-4-4-----|

Verse Riff

G:---------------------------------------
D:---------------------2h3p2-------------
A:-----3-7-------3---0-------3-------3---
E:-5-5-----1-1-1---1-----------1-1-1---1-

G:---------------------------------|
D:---------------------------------|
A:-----3-7-------3-----------------|
E:-5-5-----1-1-1---1-3-3-3-4-4-4-4-|

Fill Riff (When Horns Play)

G:---------------------------------------
D:---------------------2h3p2-------------
A:-----3-7-------3---0-------3-------3---
E:-5-5-----1-1-1---1-----------1-1-1---1-

G:-----------------------------------|
D:-----------------------------------|
A:-----3-7-------3---3-3-3-5-5-------|
E:-5-5-----1-1-1---1-----------3-3-4-|

Chorus

G:----|---------------|---------------|
D:----|---------------|---------------|
A:----|---------------|-3-3-3-5-------|
E:-0>-|-5-5-5-1-1-1-1-|---------3-3-4-|

Bridge Bit

G:----|----------------|---------------------|
D:----|------3----5----|-------3-----5-5-5-5-|
A:----|----------------|---------------------|
E:-0>-|-5--------------|-5-------------------|

The last bit is the same riff as the chorus. I'm pretty sure it's all 
correct.
            
Hard to play? Try these video lessons and learn fast. | Correct




comments powered by Disqus
↑ Back to top | Tablatures and chords are parodies/interpretations of the original songs. You may use it for private study, scholarship, research or language learning purposes only