» » »

Mad Caddies, Day By Day Tabs (ver.1)

Artists:  A B C D E F G H I J K L M N O P Q R S T U V W X Y Z # 

Day By Day Tabs (ver.1)

Mad Caddies Tabs
Rating:
4/5 (1 vote)
Day By Day lessons Tabs too difficult? Try these video lessons and learn fast
                Day by Day � Mad Caddies
------------------------------------------------------
A= left guitar B= right guitar
Intro A
*= play 16x #= play 8x &=play 3-4x
E|-----------------------------------------|
B|----*-----*---*--#--&--&--*-#--&--&------|
G|-*--7--*--9--14-14-13-14-11-9-14-13-14---|
D|-7--7--4--9------------------------------|
A|-7--5--4--7--12-12-11-12--9-7-12-11-12---|
E|-5-----2---------------------------------|
Intro B
E|-----------------------------------------------|
B|----*-----*---*--#--&--&--*-#--&--&------------|
G|-*--7--*--9--14-14-13-14-11-9-14-13-14-14------|
D|-7--7--4--9------------------------------14----|
A|-7--5--4--7--12-12-11-12--9-7-12-11-12-----12--|
E|-5-----2---------------------------------------|
Verse A
*= play 8x #= play 4x
E|-*--5--*--7--*--5--*-------|
B|-5--7--2--9--5--7--2--*-#--|
G|-6--7--2--9--6--7--2--9-9--|
D|-7--7--4--9--7--7--4--9-9--|
A|-7--5--4--7--7--5--4--7-7--|
E|-5--*--2--*--5--*--2-------|
Verse B
E|-*--5--*--7---------------*--5--*-------|
B|-5--7--2--9---------------5--7--2--*-#--|
G|-6--7--2--9-99-11-11-11-9-6--7--2--9-9--|
D|-7--7--4--9-77--9--9--9-7-7--7--4--9-9--|
A|-7--5--4--7-77--9--9--9-7-7--5--4--7-7--|
E|-5--*--2--#---------------5--*--2-------|
Pre chorus A&B
*= play 4-5x play b= bend up r= release
E|----------------------------------|
B|-*-*------------------*-----------|
G|-7-7-*-9b11r9-7-----7-7-------7---|
D|-7-7-9----------9-7---7-99-77-7---|
A|-5-5-9----------------5-99-77-5---|
E|-----7------------------77-55-----|
Chorus A&B
*= play 4-5x
E|-------------------------------------------->
B|-----*--------------------*----------------->
G|-*-*-7-13-13-13-14-14-*-*-9-14-14-14-13-13-->
D|-7-7-7----------------4-4-9----------------->
A|-7-7-5-11-11-11-12-12-4-4-7-12-12-12-11-11-->
E|-5-5------------------2-2------------------->

E>---------------------------------------------|-B only---|
B>-----*--------------------*------------------|----------|
G>-*-*-7-13-13-13-14-14-*-*-9-14-14-14-13-13-14|14--------|
D>-7-7-7----------------4-4-9------------------|--14--14--|
A>-7-7-5-11-11-11-12-12-4-4-7-12-12-12-11-11-12|----12----|
E>-5-5------------------2-2--------------------|----------|
Verse2 A&B
*= play 8x #= play 4x
E|-*--5--*--7-------*--5--*-------|
B|-5--7--2--9-------5--7--2--*-#--|
G|-6--7--2--9-999---6--7--2--9-9--|
D|-7--7--4--9-999-7-7--7--4--9-9--|
A|-7--5--4--7-777-7-7--5--4--7-7--|
E|-5--*--2--#-----5-5--*--2-------|
Then play pre chorus A&B and chorus A&B (without last note or B only part)
Bridge A 
%= pause #= play 4x *= play 8x m= palm mute
E|-----%%%%------------%%%%------------------------------m-----|
B|-----%%%%-#----------%%%%-#-------------*-----------m--*-----|
G|--#--%%%%-6---#---#--%%%%-6---#---*--*--6--*--*--*--*--4--5--|
D|--4--%%%%-6---4---4--%%%%-6---4---4--2--6--4--4--2--7--4--5--|
A|--4--%%%%-4---4---4--%%%%-4---4---4--2--4--4--4--2--7--2--3--|
E|--2--%%%%-----2---2--%%%%-----2---2--0-----2--2--0--5--------|



Bridge B
E|-%%%%----%%%%----%%%%----%%%%--------------------------m-----|
B|-%%%%----%%%%----%%%%----%%%%-----------*-----------m--*-----|
G|-%%%%-#--%%%%-#--%%%%-#--%%%%-#---*--*--6--*--*--*--*--4--5--|
D|-%%%%-2--%%%%-4--%%%%-2--%%%%-4---4--2--6--4--4--2--7--4--5--|
A|-%%%%-2--%%%%-4--%%%%-2--%%%%-4---4--2--4--4--4--2--7--2--3--|
E|-%%%%-0--%%%%-2--%%%%-0--%%%%-2---2--0-----2--2--0--5--------|
Final Chorus A&B
*= play 4-5x m= palm mute
E|-------------------------------------------------------->
B|-----*--mm-------*--------------------*----------------->
G|-*-*-7-666-7-*-*-9-14-14-14-13-13-*-*-7-13-13-13-14-14-->
D|-7-7-7-666-7-4-4-9----------------7-7-7----------------->
A|-7-7-5-444-5-4-4-7-12-12-12-11-11-7-7-5-11-11-11-12-12-->
E|-5-5---------2-2------------------5-5------------------->

E>---------------------------------------------------|
B>-----*---------------------------------------------|
G>-*-*-9-14-14-14-13-13--14-14-14-13-14-14-14-13-10--|
D>-4-4-9---------------------------------------------|
A>-4-4-7-12-12-12-11-11--12-12-12-11-12-12-12-11--8--|
E>-2-2-----------------------------------------------|
        
            
Submit corrections

comments powered by Disqus
↑ Back to top | Mad Caddies Tabs for Day By Day. Lyrics for acoustic guitar and electric guitar. Tablatures and chords are parodies/interpretations of the original songs. You may use it for private study, scholarship, research or language learning purposes only