» » »

All American Badass Bass tabs (ver.1)

Artists:  A B C D E F G H I J K L M N O P Q R S T U V W X Y Z # 

All American Badass Bass tabs (ver.1)

Mad Caddies
Rating:
0/5 (0 votes)

Hard to play? Try these video lessons and learn fast.
                ------------------------------------------------
Mad Caddies - All American Badass
------------------------------------------------
Intro
G|----------------------------| 
D|----------------------------|  
A|-------------5-3-2-0--------| 
E|---333---333---------3-2----|

Verse
G|------------------------------------------------------| 
D|------------------------------------------------------|  
A|--3-3-3-3------3-3-3-5-5-5-5------3-3-3-5-5-5-5-------| 
E|---3-3-3-3-5-6--3-3-3-3-3-3-3-5-6--3-3-3-3-3-3-3-5-6--|

Break
G|-----------------------------------------------------| 
D|-----------------------------------------------------|  
A|--3-3-3-5-5-5-5------3-3-3-3----------5-3-2-0--------| 
E|---3-3-3-3-3-3-3-5-6--3-3-3-333---333---------3-2----|

Verse
Punk Chorus
G|---------|   |-------| 
D|---------|x2 |-------|  
A|---3>----|   |-5-----| 
E|-----3>--|   |---3---|

break
Verse
Chorus
G|----------|   
D|----------| 
A|----0-2-3-|   
E|-33-------|
            
Hard to play? Try these video lessons and learn fast. | Correct




comments powered by Disqus
↑ Back to top | Tablatures and chords are parodies/interpretations of the original songs. You may use it for private study, scholarship, research or language learning purposes only