» » »

All American Badass Tabs (ver.1)

Artists:  A B C D E F G H I J K L M N O P Q R S T U V W X Y Z # 

All American Badass Tabs (ver.1)

Mad Caddies
Rating:
0/5 (0 votes)

Hard to play? Try these video lessons and learn fast.
                Artist" The Mad Maddes


This song was easy to learn, so here is the tab. If you have never heared a polka
before the rhythm is easy laern if you listen to the song.

Verse:
e|--3-----3--------|
B|--5--X8-3--X8----|
G|--5-----4--------|
D|-----------------|
A|-----------------|
E|-----------------|

Chorus:
e|-----------------|
B|-----------------|
G|--5--------------|
D|--5--X8-5--------|
A|--3-----5--X8----|
E|--------3--------|


BASS GUITAR:
Chorus:
e|-----------------|
B|-----------------|
G|-----------------|
D|-----------------|
A|--3-----X8-------|
E|----3------------|
transition:
e|-----------------|
B|-----------------|
G|-----------------|
D|-----------------|
A|----3--5---------|
E|--3--------------|
to:
e|-----------------|
B|-----------------|
G|-----------------|
D|-----------------|
A|--5-----X8-------|
E|----37-----------|
transition back:
e|-----------------|
B|-----------------|
G|-----------------|
D|-----------------|
A|-----5--3--------|
E|--7--------------|

Chorus:
e|-----------------|
B|-----------------|
G|-----------------|
D|-----------------|
A|--3--------------|
E|----3------------|
            
Hard to play? Try these video lessons and learn fast. | Correct




comments powered by Disqus
↑ Back to top | Tablatures and chords are parodies/interpretations of the original songs. You may use it for private study, scholarship, research or language learning purposes only