>
 >
All Or Nothing

All Or Nothing Guitar Tabs

Madball - All Or Nothing chords, tabs, tablatures, lyrics

Guitar lessons | Add/correct | Request | Top 50 tabs Artists:  A B C D E F G H I J K L M N O P Q R S T U V W X Y Z 0-9

All Or Nothing Guitar Tabs – Madball

CD, Sheet music, Poster

Do you like All Or Nothing? Share with your friends now
Tabs

This is my first tab so be nice and have fun! :)
Improvements are welcome because I figured it out by ear ;)

Tuning: low to high CGCFAD Drop C

There are more Versions of this Song.. I will Tab a Drop D version at the bottom of this 
version :)


Verse:                                        x4
D---------------------------------------------|
A---------------------------------------------|
F---------------------------------------------|
C-5-x-3-5-6-5-3-x-x-x-x-x-5-3-5-6-5-3-6-3-5-6-|
G-5-x-3-5-6-5-3-x-x-x-x-x-5-3-5-6-5-3-6-3-5-6-|
C-5-x-3-5-6-5-3-x-x-x-x-x-5-3-5-6-5-3-6-3-5-6-|

Pre-Chorus:
D------------------------------------------------------------|
A------------------------------------------------------------|
F-7--7--7-7-7-7-----------------7--7--7-7-7-7----------------|
C-7--7--7-7-7-7--6-6-6-6-3-3-3--7--7--7-7-7-7----------------|
G-5--5--5-5-5-5--6-6-6-6-3-3-3--5--5--5-5-5-5--6-6-6-6-3-3-3-|
C----------------6-6-6-6-3-3-3-----------------6-6-6-6-3-3-3-|
                                               . . . . . . .

Chorus:                                                         x2
D---------------------------------------------------------------|
A---------------------------------------------------------------|
F-7--7--7-7-7-7--5-5-5-5-5-5-5--8--8--8-8-8-8--10-10-10-5-5-5-5-|
C-7--7--7-7-7-7--5-5-5-5-5-5-5--8--8--8-8-8-8--10-10-10-5-5-5-5-|
G-5--5--5-5-5-5--3-3-3-3-3-3-3--6--6--6-6-6-6--8--8--8--3-3-3-3-|
C---------------------------------------------------------------|


Drum Part


Verse:                                        x4
D---------------------------------------------|
A---------------------------------------------|
F---------------------------------------------|
C-5-x-3-5-6-5-3-x-x-x-x-x-5-3-5-6-5-3-6-3-5-6-|
G-5-x-3-5-6-5-3-x-x-x-x-x-5-3-5-6-5-3-6-3-5-6-|
C-5-x-3-5-6-5-3-x-x-x-x-x-5-3-5-6-5-3-6-3-5-6-|


Pre-Chorus:
D-------------------------------------------------------------------------------------------|
A-------------------------------------------------------------------------------------------|
F-7--7--7-7-7-7-----------------7--7--7-7-7-7-----------------7--7--7-7-7-7-----------------|
C-7--7--7-7-7-7--6-6-6-6-3-3-3--7--7--7-7-7-7--6-6-6-6-3-3-3--7--7--7-7-7-7--6-6-6-6-3-3-3--|
G-5--5--5-5-5-5--6-6-6-6-3-3-3--5--5--5-5-5-5--6-6-6-6-3-3-3--5--5--5-5-5-5--6-6-6-6-3-3-3--|
C----------------6-6-6-6-3-3-3-----------------6-6-6-6-3-3-3-----------------6-6-6-6-3-3-3--|
                                                                    . . . .

Chorus:                                                         x4
D---------------------------------------------------------------|
A---------------------------------------------------------------|
F-7--7--7-7-7-7--5-5-5-5-5-5-5--8--8--8-8-8-8--10-10-10-5-5-5-5-|
C-7--7--7-7-7-7--5-5-5-5-5-5-5--8--8--8-8-8-8--10-10-10-5-5-5-5-|
G-5--5--5-5-5-5--3-3-3-3-3-3-3--6--6--6-6-6-6--8--8--8--3-3-3-3-|
C---------------------------------------------------------------|


Bridge:
D---------------------------------------------------------------------|
A---------------------------------------------------------------------|
F---------------------------------------------------------------------|
C-3-----5------------3-----6---5----3-----5------------3-----6---5----|
G-3-3-3-5-5-5-5-5-5--3-3-3-6-6-5-5--3-3-3-5-5-5-5-5-5--3-3-3-6-6-5-5--|
C-3-3-3-5-5-5-5-5-5--3-3-3-6-6-5-5--3-3-3-5-5-5-5-5-5--3-3-3-6-6-5-5--|
    . .   . . . . .    . .   .   .    . .   . . . . .    . .   .   .

D-----------------------------------------------------------------|
A-----------------------------------------------------------------|
F-----------------------------------------------------------------|
C-3-----5------------3-----6---5----3-----5-----------5-5-5-5-5-5-|
G-3-3-3-5-5-5-5-5-5--3-3-3-6-6-5-5--3-3-3-5-5-5-5-5-5-5-5-5-5-5-5-|
C-3-3-3-5-5-5-5-5-5--3-3-3-6-6-5-5--3-3-3-5-5-5-5-5-5-5-5-5-5-5-5-|
    . .   . . . . .    . .   .   .    . .   . . . . .

D--------------------------------------------------------------------|
A--------------------------------------------------------------------|
F-7--7--7-7-7-7--5-5-5-5-5-5-5--8--8--8-8-8-8--10-10-10-5-5-5-5------|
C-7--7--7-7-7-7--5-5-5-5-5-5-5--8--8--8-8-8-8--10-10-10-5-5-5-5- ----| x2
G-5--5--5-5-5-5--3-3-3-3-3-3-3--6--6--6-6-6-6--8--8--8--3-3-3-3------|
C--------------------------------------------------------------------|


Final Chorus:                                                   x2
D---------------------------------------------------------------|
A---------------------------------------------------------------|
F-7--7--7-7-7-7--5-5-5-5-5-5-5--8--8--8-8-8-8--10-10-10-5-5-5-5-|
C-7--7--7-7-7-7--5-5-5-5-5-5-5--8--8--8-8-8-8--10-10-10-5-5-5-5-|
G-5--5--5-5-5-5--3-3-3-3-3-3-3--6--6--6-6-6-6--8--8--8--3-3-3-3-|
C---------------------------------------------------------------|

End on
D----------|
A----------|
F-7~~~~~~~-
C-7~~~~~~~-
G-5~~~~~~~-
C----------

__________________________________________________________________________

Drop D Version
Tuning: low to high DADGBe

Verse:                                        x4
E---------------------------------------------|
B---------------------------------------------|
G---------------------------------------------|
D-3-x-1-3-4-3-1-x-x-x-x-x-3-1-3-4-3-1-4-1-3-4-|
A-3-x-1-3-4-3-1-x-x-x-x-x-3-1-3-4-3-1-4-1-3-4-|
D-3-x-1-3-4-3-1-x-x-x-x-x-3-1-3-4-3-1-4-1-3-4-|

Pre-Chorus:
E------------------------------------------------------------|
B------------------------------------------------------------|
G-5--5--5-5-5-5-----------------5--5--5-5-5-5----------------|
D-5--5--5-5-5-5--4-4-4-4-1-1-1--5--5--5-5-5-5----------------|
A-3--3--3-3-3-3--4-4-4-4-1-1-1--3--3--3-3-3-3--4-4-4-4-1-1-1-|
D----------------4-4-4-4-1-1-1-----------------4-4-4-4-1-1-1-|
                                               . . . . . . .

Chorus:                                                      x2
E------------------------------------------------------------|
B------------------------------------------------------------|
G-5--5--5-5-5-5--3-3-3-3-3-3-3--6--6--6-6-6-6--8-8-8-3-3-3-3-|
D-5--5--5-5-5-5--3-3-3-3-3-3-3--6--6--6-6-6-6--8-8-8-3-3-3-3-|
A-3--3--3-3-3-3--1-1-1-1-1-1-1--4--4--4-4-4-4--6-6-6-1-1-1-1-|
D------------------------------------------------------------|


Drum Part


Verse:                                        x4
E---------------------------------------------|
B---------------------------------------------|
G---------------------------------------------|
D-3-x-1-3-4-3-1-x-x-x-x-x-3-1-3-4-3-1-4-1-3-4-|
A-3-x-1-3-4-3-1-x-x-x-x-x-3-1-3-4-3-1-4-1-3-4-|
D-3-x-1-3-4-3-1-x-x-x-x-x-3-1-3-4-3-1-4-1-3-4-|


Pre-Chorus:
E------------------------------------------------------------------------------------------|
B------------------------------------------------------------------------------------------|
G-5--5--5-5-5-5-----------------5--5--5-5-5-5-----------------5--5--5-5-5-5----------------|
D-5--5--5-5-5-5--4-4-4-4-1-1-1--5--5--5-5-5-5--4-4-4-4-1-1-1--5--5--5-5-5-5--4-4-4-4-1-1-1-|
A-3--3--3-3-3-3--4-4-4-4-1-1-1--3--3--3-3-3-3--4-4-4-4-1-1-1--3--3--3-3-3-3--4-4-4-4-1-1-1-|
D----------------4-4-4-4-1-1-1-----------------4-4-4-4-1-1-1-----------------4-4-4-4-1-1-1-|
                                                                    . . . .

Chorus:                                                      x2
E------------------------------------------------------------|
B------------------------------------------------------------|
G-5--5--5-5-5-5--3-3-3-3-3-3-3--6--6--6-6-6-6--8-8-8-3-3-3-3-|
D-5--5--5-5-5-5--3-3-3-3-3-3-3--6--6--6-6-6-6--8-8-8-3-3-3-3-|
A-3--3--3-3-3-3--1-1-1-1-1-1-1--4--4--4-4-4-4--6-6-6-1-1-1-1-|
D------------------------------------------------------------|


Bridge:
E---------------------------------------------------------------------|
B---------------------------------------------------------------------|
G---------------------------------------------------------------------|
D-1-----3------------1-----4---3----1-----3------------1-----4---3----|
A-1-1-1-3-3-3-3-3-3--1-1-1-4-4-3-3--1-1-1-3-3-3-3-3-3--1-1-1-4-4-3-3--|
D-1-1-1-3-3-3-3-3-3--1-1-1-4-4-3-3--1-1-1-3-3-3-3-3-3--1-1-1-4-4-3-3--|
    . .   . . . . .    . .   .   .    . .   . . . . .    . .   .   .

E-----------------------------------------------------------------|
B-----------------------------------------------------------------|
G-----------------------------------------------------------------|
D-1-----3------------1-----4---3------1-----3---------3-3-3-3-3-3-|
A-1-1-1-3-3-3-3-3-3--1-1-1-4-4-3-3----1-1-1-3-3-3-3-3-3-3-3-3-3-3-|
D-1-1-1-3-3-3-3-3-3--1-1-1-4-4-3-3----1-1-1-3-3-3-3-3-3-3-3-3-3-3-|
    . .   . . . . .    . .   .   .      . .   . . . . .

E----------------------------------------------------------------|
B----------------------------------------------------------------|
G-5--5--5-5-5-5--3-3-3-3-3-3-3--6--6--6-6-6-6--8-8-8-3-3-3-3-----|
D-5--5--5-5-5-5--3-3-3-3-3-3-3--6--6--6-6-6-6--8-8-8-3-3-3-3- ---|x2
A-3--3--3-3-3-3--1-1-1-1-1-1-1--4--4--4-4-4-4--6-6-6-1-1-1-1-----|
D----------------------------------------------------------------|


Final Chorus:                                                   x2
E------------------------------------------------------------|
B------------------------------------------------------------|
G-5--5--5-5-5-5--3-3-3-3-3-3-3--6--6--6-6-6-6--8-8-8-3-3-3-3-|
D-5--5--5-5-5-5--3-3-3-3-3-3-3--6--6--6-6-6-6--8-8-8-3-3-3-3-|
A-3--3--3-3-3-3--1-1-1-1-1-1-1--4--4--4-4-4-4--6-6-6-1-1-1-1-|
D------------------------------------------------------------|

End on
D----------|
A----------|
F-5~~~~~~~-
C-5~~~~~~~-
G-3~~~~~~~-
C----------

Keys:

~    Let Note ring
.    Palm Muting





Comments


Popular Madball tabs & chords
Friend Or Foe Bass Tabs
Pride Bass Tabs
Streets Of Hate 1 Bass Tabs
The Blame Bass Tabs
100% Tabs
New York City 1 Tabs
Our Family Tabs
Pride 1 Tabs
Spit On Your Grave Tabs
Tight Rope Tabs


Song lyrics



↑ Back to top | Tablatures and chords are parodies/interpretations of the original songs. You may use it for private study, scholarship, research or language learning purposes only
© 2014 AZChords.com Contact us | Privacy policy | DMCA | Add/correct tabs | Request tabs | Top 50 tabs