» » »

Burn Tabs (ver.4)

Artists:  A B C D E F G H I J K L M N O P Q R S T U V W X Y Z # 

Burn Tabs (ver.4)

Mad At Gravity
Rating:
0/5 (0 votes)

Hard to play? Try these video lessons and learn fast.
                Tuning:  Standard

Intro / Verse:

|-----------------------------|
|-------4---------------------|
|-5-----------3-----3-----5---|
|-----------------------------|
|---3-3---3-3---3-3---3-3---3-|
|-----------------------------|

2nd Guitar (Chords):

|---|------------|
|---|------------|
|-5-|-10--8--5-5-|
|-5-|-10--8--5-5-|
|-3-|-8---6--3-3-|
|-3-|-8---6--3-3-|


Chorus (Chords):

|-------------|-------------|
|-------------|-------------|
|-------------|-10--5-------|
|-x-x-x-x-x-x-|-10--5--8--8-|
|-x-x-x-x-x-x-|-8---3--6--8-|
|-x-x-x-x-x-x-|-8---3--4--6-|

2nd Guitar:

|-------------------------|
|-6-----4-----------------|
|-------------3-----3-----|
|-------------------------|
|---3-3---3-3---3-3---3-3-|
|-------------------------|


Interlude:

|-----------------------|------------------------------------------------|
|-----------------------|------------------------------------------------|
|-----------------------|------------------------------------------------|
|-------8--------8/10/8-|------------13/12-12--12-12/10-10--10-10/8-8--x-|
|---6--------6----------|-------10---11/10-10--10-10/8--8---8--8-/6-6--x-|
|-6---6----6---6--------|-6/8-8----8-11/10-10--10-10/8--8---8--8-/6-6--x-|

|-----------------------|-----------------------------------------------|
|-----------------------|-----------------------------------------------|
|-----------------------|-----------------------------------------------|
|-------8--------8/10/8-|------------13/12-12--12-12/10-8--8-8/10-10--x-|
|---6--------6----------|-------10---11/10-10--10-10/8--6--6-6/8--8---x-|
|-6---6----6---6--------|-6/8-8----8-11/10-10--10-10/8--6--6-6/8--8---x-|

Interlude 2:

x8          x4          x2
|-----------|-----------|-----------|
|-----------|-----------|-----------|
|-----------|---------8-|-----------|
|-----8---8-|-----8-----|-----8---8-|
|---6---6---|---6---6---|---6---6---|
|-6---------|-6---------|-6---------|

|-------------|
|-------------|
|-------------|
|-8-x-x-x-x-8-|
|-6-x-x-x-x-6-|
|-6-x-x-x-x-6-|
            
Hard to play? Try these video lessons and learn fast. | Correct




comments powered by Disqus
↑ Back to top | Tablatures and chords are parodies/interpretations of the original songs. You may use it for private study, scholarship, research or language learning purposes only