» » »

Mad At Gravity, Burn Tabs (ver.2)

Artists:  A B C D E F G H I J K L M N O P Q R S T U V W X Y Z # 

Burn Tabs (ver.2)

Mad At Gravity Tabs
Rating:
0/5 (0 votes)
Burn lessons Tabs too difficult? Try these video lessons and learn fast
                (Acoustic)
----------------------------------------------------------------------------
----------------------------------------------------------------------------

Tuning: Standard

(interlude updated -  Replaces Version 1 submitted by me yesterday)

and playing it will sort that out.


Intro / Verse: (Looped)

1st Guitar:

|---------------------------------------------------------|
|-------4---------------------------4---------------------|
|-5-----------3-----3-----5---5-----------3-----3-----5---|
|---5-----5-----5-----5-----5---5-----5-----5-----5-----5-|
|-----3-----3-----3-----3---------3-----3-----3-----3-----|
|---------------------------------------------------------|

2nd Guitar (Chords):

      These Em-bers burn Down low
|---|----------------------------|
|---|----------------------------|
|-5-|---------------8--------5-5-|
|-5-|-------10------8--------5-5-|
|-3-|-------8-------6--------3-3-|
|-3-|-------8-------6--------3-3-|


   And w-ith  my  face  aglow
|----------------------------|
|----------------------------|
|---------------8--------5-5-|
|-------10------8--------5-5-|
|-------8-------6--------3-3-|
|-------8-------6--------3-3-|


   You are a--ll I kn--ow
|----------------------------------|
|----------------------------------|
|--10------8--------5-5------------|
|--10------8--------5-5---Xxx-Xxx--|
|--8-------6--------3-3---Xxx-Xxx--|
|--8-------6--------3-3---Xxx-Xxx--|

Chorus

1st Guitar: (Looped)

|-----------------------------------|
|--6---4------------6---4-----------|
|-----------3----------------3------|
|----5---5-------5----5---5-------5-|
|--------------3----------------3---|
|-----------------------------------|

2nd Guitar (Chords):

     Set this place on fire,    Watch the flames rise higher
|----------------------------------------------------------|
|----------------------------------------------------------|
|-10----------5-------------5-----------------8------------|
|-10----------6-------------5-----------------8------------|
|-8-----------6-------------3-----------------6------------|
|-8-----------4-------------3-----------------6------------|

    As they reach the ceiling,   At your feet I'm kneeling
|----------------------------------------------------------|
|----------------------------------------------------------|
|-10----------5-------------5-----------------8------------|
|-10----------6-------------5-----------------8------------|
|-8-----------6-------------3-----------------6------------|
|-8-----------4-------------3-----------------6------------|


Extended Chorus:
1st Guitar: Mute

2nd Guitar (Chords):

         With every trailing plu  -      -     me,    I
|----------------------------------------------------------|
|----------------------------------------------------------|
|-10----------5-------------5-----------------8------------|
|-10----------6-------------5-----------------8------------|
|-8-----------6-------------3-----------------6------------|
|-8-----------4-------------3-----------------6------------|

   Kn - ow it bears       me home

|----------------------------------------------------------|
|----------------------------------------------------------|
|-10----------5-------------5-----------------8------------|
|-10----------6-------------5-----------------8------------|
|-8-----------6-------------3-----------------6------------|
|-8-----------4-------------3-----------------6------------|

Interlude:

2nd Guitar: Mute

1st Guitar:

|-----------------------|------------------------------------------|
|-----------------------|------------------------------------------|
|-----------------------|------------------------------------------|
|-------8--------8/10/8-|------------13/12-12--12/10-10--10/8-8--x-|
|---6--------6----------|-------10---10/-8--8---8/-6--6---6/5-5--x-|
|-4---4----4---4--------|-6--6/8---8-------------------------------|

               
|-----------------------|------------------------------------------|
|-----------------------|------------------------------------------|
|-----------------------|------------------------------------------|
|-------8--------8/10/8-|------------13/12-12--12/8-8--8/10-10--x--|
|---6--------6----------|-------10---10/-8--8---8/5-5--5/-6--6--x--|
|-4---4----4---4--------|-6--6/8-----8------------------------------|

            I          would    give    it    all
|-----------------------|------------------------------------------|
|-----------------------|------------------------------------------|
|-----------------------|------------------------------------------|
|-------8--------8/10/8-|------------13/12-12--12/10-10--10/8-8--x-|
|---6--------6----------|-------10---10/-8--8---8/-6--6---6/5-5--x-|
|-4---4----4---4--------|-6--6/8---8-------------------------------|


    Yes,       I       would    give    it    all...            
|-----------------------|------------------------------------------|
|-----------------------|------------------------------------------|
|-----------------------|------------------------------------------|
|-------8--------8/10/8-|------------13/12-12--12/8-8--8/10-10--x--|
|---6--------6----------|-------10---10/-8--8---8/5-5--5/-6--6--x--|
|-4---4----4---4--------|-6--6/8----8------------------------------|

   


Verse 2:
Drawing ever near
My cause revealed as clear
Yes I burn for you here

Outro:
Let it burn....



I think Thats pretty much all you need to play the song. Any Feedback is welcome.

| /  slide up
| \  slide down
| h  hammer-on
| p  pull-off
| ~  vibrato
| +  harmonic
| x  Mute note
============================================================================
            

comments powered by Disqus
↑ Back to top | Mad At Gravity Tabs for Burn. Lyrics for acoustic guitar and electric guitar. Tablatures and chords are parodies/interpretations of the original songs. You may use it for private study, scholarship, research or language learning purposes only