» » »

Burn Tabs (ver.1)

Artists:  A B C D E F G H I J K L M N O P Q R S T U V W X Y Z # 

Burn Tabs (ver.1)

Mad At Gravity
Rating:
0/5 (0 votes)

Hard to play? Try these video lessons and learn fast.
                Wow is this song cool or what! I, like most people, found out about these guys from the movie "Reign of Fire". Let me just say that the rest of their CD "Resonance" is pretty good as well. Don't miss these guys...they might be in a club near you!

TUNING: C G C F A D (low to high)

TIME SIG.: Verses 7/8; Everything Else 6/8


INTRO/VERSE
Guitar 1
d---------------------------------
a---------------------------------
f--7-----10-----5------5-----7----
c----0-0----0-0---0-0----0-0---0--
g---------------------------------
c---------------------------------

Guitar 2/Bass
d------------------------------
a------------------------------
f------------------------------
c--5-5-5--3-3-3--0-0-0--0-0-0--
g--5-5-5--3-3-3--0-0-0--0-0-0--
c--5-5-5--3-3-3--0-0-0--0-0-0--

CHORUS
Guitar 1
d-----------------------------
a-----------------------------
f--12-----10-----5---5---7---- (repeat)
c-----0-0----0-0---0---0---0--
g-----------------------------
c-----------------------------

Guitar 2
d------------------------------
a------------------------------
f----------------5-5-5--5-5-5--
c--8-8-8--5-5-5--5-5-5--5-5-5--
g--8-8-8--5-5-5--3-3-3--3-3-3--
c--8-8-8--5-5-5--0-0-0--0-0-0--

BRIDGE ("With every trailing plume...)
Guitar 1
d------------------------------------------
a------------------------------------------
f--15-15-15--12-12-12--10-10-10--10-10-10--
c--x--x--x---x--x--x---x--x--x---x--x--x---
g--13-13-13--10-10-10--8--8--8---8--8--8---
c------------------------------------------

Guitar 2
d-------------------------------------
a-------------------------------------
f-----------------10-10-10--10-10-10--
c--8-8-8--5-5-5---10-10-10--10-10-10--
g--8-8-8--5-5-5---8--8--8---8--8--8---
c--8-8-8--5-5-5---0--0--0---0--0--0---

INTERLUDE
Guitar 1
d-----------------------------------------------
a-----------------------------------------------
f------------------10/9-9--9/7-7--7/5-5--5\7-7--
c--10----10b12r10--x--x-x--x-x-x--x-x-x--x-x-x--
g--8---------------8/-7-7--7/5-5--5/3-3--3\5-5--
c--8---------------0--0-0--0-0-0--0-0-0--0-0-0--

Guitar 2
d--------------------------------------------------------
a--------------------------------------------------------
f------------------14-14-14--14/12-12--12/10-10--10/9-9--
c--8---------------x--x--x---x--x--x---x--x--x---x--x-x--
g--8---------------12-12-12--12/10-10--10/8--8---8/-7-7--
c--8---------------0--0--0---0--0--0---0--0--0---0--0-0--

The end follows the above parts at different segments. Figure that out for yourself. Other questions and concerns in the comments section. Thanks

Adam
            
Hard to play? Try these video lessons and learn fast. | Correct




comments powered by Disqus
↑ Back to top | Tablatures and chords are parodies/interpretations of the original songs. You may use it for private study, scholarship, research or language learning purposes only