» » »

Machine Head, Trephination Bass tabs (ver.1)

Artists:  A B C D E F G H I J K L M N O P Q R S T U V W X Y Z # 

Trephination Bass tabs (ver.1)

Machine Head Tabs
 Rating:
4/5 (4 votes)
Trephination  lessons Tabs too difficult? Try these video lessons and learn fast
1
                (1)
Tuning: B E A D G

Intro: x4

|-------------------------------------------------|
|-------------------------------------------------|
|-------------------------------------------------|
|-------------------------------------------------|
|--0-0-0-0-1--0-0-0-0-1--0-0-0-0-1--0-0-3--0-0-3--|


Verse: x7
|-------------------------------------------------|
|-------------------------------------------------|
|-------------------------------------------------|
|-------------------------------------------------|
|--0-0-0-0-1--0-0-0-0-1--0-0-0-0-1--0-0-3--0-0-3--|


Verse last bar: x1
|-------------------------------------------------|
|-------------------------------------------------|
|-------------------------------------------------|
|-------------------------------------------------|
|--0-0-0-0-1--0-0-0-0-1--0-0-0-0-1--0-0-3--0-0-3--|


Main riff: x4

|-------------------------------------------------|
|-------------------------------------------------|
|-------------------------------------------------|
|-------------------------------------------------|
|--0-0-0-0-1--0-0-0-0-1--0-0-0-0-1--0-0-3--0-0-3--|


Verse: x7

|-------------------------------------------------|
|-------------------------------------------------|
|-------------------------------------------------|
|-------------------------------------------------|
|--0-0-0-0-1--0-0-0-0-1--0-0-0-0-1--0-0-3--0-0-3--|

Verse last bar: x1


Main Riff: x4


Chorus: x8

|------------|
|------------|
|------------|
|------------|
|--12\3—6-0--|

Verse: x7

Verse last bar: x1


Main Riff: x4

Chorus: x8

Interlude Part 1: x2

|-------------------------------------|--------------------------------------|
|-------------------------------------|--------------------------------------|
|-------------------------------------|--------------------------------------|
|-------------------------------------|--------------------------------------|
|--0-0-0-0--0-0-0-0--0-0-0-0--0-0-0-0-|-0-0-0-0--0-0-0-0--0-0-0-0--0-0-0-0---|


Interlude Part2: x1

|------------------------------------------------------------|
|------------------------------------------------------------|
|------------------------------------------------------------|
|------------------------------------------------------------|
|--6~~~~~~~~~~~~~~~~~~~~~~~~~~~~~~~~~~~~~~~~~~~~~~~~~~~~~~~--|

Interlude Part 1: x1

Interlude Part 2: x1

Interlude Part 1: x1

Interlude Part 2: x1

Verse: x3

Verse last bar: x1

Main Riff: x4

Pre- chorus part1:

|-------|
|-------|
|-------|
|-------|
|--12---|

Pre Chorus part 2:

|-------------------------------------------------------------------------------|
|-------------------------------------------------------------------------------|
|-------------------------------------------------------------------------------|
|-------------------------------------------------------------------------------|
|--0-0-0-0-0-0-0-0-0-0-0-0-0-0-0-0-0-0-0-0-0-0-0-0-0-0-0-0-0-0-0-0-0-0-0-0-0-0--|

Chorus: x8

Thankyou please rate:
            
Submit corrections

comments powered by Disqus
↑ Back to top | Machine Head Bass for Trephination. Lyrics for acoustic guitar and electric guitar. 1 Tablatures and chords are parodies/interpretations of the original songs. You may use it for private study, scholarship, research or language learning purposes only