» » »

Machine Head, Take My Scars Tabs (ver.3)

Artists:  A B C D E F G H I J K L M N O P Q R S T U V W X Y Z # 

Take My Scars Tabs (ver.3)

Machine Head Tabs
 Rating:
4/5 (4 votes)
Take My Scars lessons Tabs too difficult? Try these video lessons and learn fast
1
                mACHINE hEAD
                                   "Take My Scars"
                           Tuning: (B,F#,B,E,G#,C#)

Intro: Guitar 1, Slightly palm muted      Intro:  Guitar 2
C#|-------------------------------|-----------------------------------------|
G#|-------------7*--7*--7*--7*--7*|-----------------------------------------|
E |-7*--7*--7*--7*----------------|-----7-9-8-7-9-9-8-7-8-7-9-8-7-9-9-8-7-8-|
B |-------------------------------|-----------------------------------------|
F#|-------------------------------|-----------------------------------------|
B |-------------------------------|-----------------------------------------|
 
Chorus 1: (Both Guitars)
C#|------------------------------------------------------------|
G#|------------------------------------------------------------|
E |------------------------------------------------------------|
B |-----------------------------7-/-9--9-9-9--5-/-10-10-10-10--|
F#|-0-2-1-0--2-2-1-0-1--0-2-1-0-5-/-7--7-7-7--7-/-8---8--8--8--|
B |-0-2-1-0--2-2-1-0-1--0-2-1-0--------------------------------|

Verse: (Both Guitars Slightly Palm muted)
C#|----------------------------------------------------|
G#|----------------------------------------------------|
E |----------------------------------------------------|
B |----------------------------------------------------|
F#|---------------------------1-1---1-1-1--1-1--1--4-4-|
B |-1-1--1--1-1--1--1-1--4-4--1-1---1-1-1--1-1--1--4-4-|

C#|------------------------------|
G#|------------------------------|
E |------------------------------|
B |5-/-4---4-/-5-/-4---4-/-5-/-4-|
F@|3-/-2---2-/-3-/-2---2-/-3-/-2-|
B |------------------------------|
            
Submit corrections

comments powered by Disqus
↑ Back to top | Machine Head Tabs for Take My Scars. Lyrics for acoustic guitar and electric guitar. 1 Tablatures and chords are parodies/interpretations of the original songs. You may use it for private study, scholarship, research or language learning purposes only