>
 >
Slanderous 2

Slanderous 2 Guitar Tabs

Machine Head - Slanderous 2 chords, tabs, tablatures, lyrics

Guitar lessons | Add/correct | Request | Top 50 tabs Artists:  A B C D E F G H I J K L M N O P Q R S T U V W X Y Z 0-9

Slanderous 2 Guitar Tabs – Machine Head

CD, Sheet music, Poster

Do you like Slanderous 2? Share with your friends now
TabsTabs v2
SLANDEROUS (solo)
Machine Head
The Blackening
2007 Roadrunner Records

tuned down 1 1/4 step drop tuning.

legend:
/ : slide
(): let ring
^ : string bend
* : artificial harmonic
//: tremelo picking

play in 3's

pre-solo:
|------------------------------------|
|------------------------------------|
|------------------------------------|
|-9--()------------------------------|
|-9--()------------------------------|
|-9--()------------------------------|


Phil's solo
|----------------------------------------------------|
|----------------------------------------------------|
|------------------------------------------9^-7-9----|
|--7/9-9-9-9-9-12-9-9-9-9-9-11-9-9-12-9-9------------|
|----------------------------------------------------|
|----------------------------------------------------|

|------------------------------------------------------------------------|
|-10/12-12-12-12-12-15-12-12-12-12-15-17^-15-17-15-14-15-14----14--------|
|-----------------------------------------------------------16----14-16--|
|------------------------------------------------------------------------|
|------------------------------------------------------------------------|
|------------------------------------------------------------------------|

|-----17-----17-----17-----17-----17-----17-----17-----17---|
|-17^----17^----17^----17^----17^----17^----17^----17^------|
|-----------------------------------------------------------|
|-----------------------------------------------------------|
|-----------------------------------------------------------|
|-----------------------------------------------------------|

|-14-15-14------14-----------------14-15-17--21-22-21-19-21-19-17----22-----|
|-----------17------17-15-14-15-17--------------------------------22^--22^--|
|---------------------------------------------------------------------------|
|---------------------------------------------------------------------------|
|---------------------------------------------------------------------------|
|---------------------------------------------------------------------------|


Robb's Solo
|-19^--------19^--------19^---19---18---19---|
|--------------------------------------------|
|--------------------------------------------|
|--------------------------------------------|
|--------------------------------------------|
|--------------------------------------------|

|-18-19-18--15--18--15--18--14--15--14-15-14--12--14------12---|
|-----------------------------------------------------15-------|
|--------------------------------------------------------------|
|--------------------------------------------------------------|
|--------------------------------------------------------------|
|--------------------------------------------------------------|

|-------------------------------------------|
|-14-15-14--12--14--------------------------|
|-------------------14--16--15-/------------|
|-------------------------------------------|
|-------------------------------------------|
|-------------------------------------------|

|--------------------------------------------------------------|
|--------------------------------------------------------------|
|--------------------------------------------------------------|
|-------------------------------14-16-17--14-16-17--14-16-17---|
|-13-14-16--13-14-16--13-14-16---------------------------------|
|--------------------------------------------------------------|

|-----------------------------------------------------------|
|-------------------------------14-15-17-14-15-17-14-15-17--|
|-15-16-18--15-16-18--15-16-18------------------------------|
|-----------------------------------------------------------|
|-----------------------------------------------------------|
|-----------------------------------------------------------|

|-18----18----18----18----21----21-----22^------------|
|-//-19-//-19-//-19-//-19-//-23-//-23-----------------| tremolo picking
|----//----//----//----//----//----//-----------------|
|-----------------------------------------------------|
|-----------------------------------------------------|


Dual harmony thingy
|-------------------------------------------------------------------------|
|-------------------------------------------------------------------------|
|-16-14-13----13-14-16-14-13----13-14-17-16-14----14-16-17-16-14----14-16-|
|----------14----------------14----------------15----------------15-------|
|-------------------------------------------------------------------------|
|-------------------------------------------------------------------------|

|-------------------------------------------------------------------------|
|-------------------------------------------------------------------------|
|-19-17-16----16-17-19-17-16----16-17-21-19-17----17-19-21-19-17----17-19-|
|----------17----------------17----------------17----------------17-------|
|-------------------------------------------------------------------------|
|-------------------------------------------------------------------------|

|----------------------------------------------|
|----------------------------------------------|
|-22^--------22^---------24^---------22*-------|
|----------------------------------------------|
|----------------------------------------------|
|----------------------------------------------|



RHYTHM

Phil Solo rhythm  (PLAY TWICE)
|--------------------------------------------------------|
|--------------------------------------------------------|
|--------------------------------------------------------|
|-9-9-9-9-9-9-9-9-9-9-9-9-9-9-9-9-9-9-10-10-10-12-12-12--|
|-9-9-9-9-9-9-9-9-9-9-9-9-9-9-9-9-9-9-10-10-10-12-12-12--|
|-9-9-9-9-9-9-9-9-9-9-9-9-9-9-9-9-9-9-10-10-10-12-12-12--|

|-------------------------------------------------------------|
|-------------------------------------------------------------|
|-------------------------------------------------------------|
|-9-9-9-9-9-9-9-9-9-9-9-9---12---14---15---14---15-()---------|
|-9-9-9-9-9-9-9-9-9-9-9-9---12---14---15---14---15-()---------|
|-9-9-9-9-9-9-9-9-9-9-9-9---12---14---15---14---15-()---------|


Robb solo rhythm (PLAY TWICE)
|--------------------------------------------------------------|
|--------------------------------------------------------------|
|--------------------------------------------------------------|
|-4-4-4-4-4-4-4-4-4-4-4-4-4-4-4-4-4-4-5-5-5-5-5-5-7-7-7-7-7-7--|
|-4-4-4-4-4-4-4-4-4-4-4-4-4-4-4-4-4-4-5-5-5-5-5-5-7-7-7-7-7-7--|
|-4-4-4-4-4-4-4-4-4-4-4-4-4-4-4-4-4-4-5-5-5-5-5-5-7-7-7-7-7-7--|

|----------------------------------------------------|
|----------------------------------------------------|
|----------------------------------------------------|
|-4-4-4-4-4-4-4-4-4-4-4-4---7---9---10---9---10--()--|
|-4-4-4-4-4-4-4-4-4-4-4-4---7---9---10---9---10--()--|
|-4-4-4-4-4-4-4-4-4-4-4-4---7---9---10---9---10--()--|


Dual Solo Rhythm
|-------------------------------------------------------------------------|
|-------------------------------------------------------------------------|
|-------------------------------------------------------------------------|
|-5-5-5-5-5-5-5-5-5-5-5-5-7-7-7-7-7-7-7-7-7-7-7-7-9-9-9-9-9-9-9-9-9-9-9-9-|
|-5-5-5-5-5-5-5-5-5-5-5-5-7-7-7-7-7-7-7-7-7-7-7-7-9-9-9-9-9-9-9-9-9-9-9-9-|
|-5-5-5-5-5-5-5-5-5-5-5-5-7-7-7-7-7-7-7-7-7-7-7-7-9-9-9-9-9-9-9-9-9-9-9-9-|

|---------------------------------------------------------------------------|
|---------------------------------------------------------------------------|
|---------------------------------------------------------------------------|
|-10-10-10-10-10-10-10-10-10-10-10-10---13--------13-------13--------13-----|
|-10-10-10-10-10-10-10-10-10-10-10-10---13--------13-------13--------13-----|
|-10-10-10-10-10-10-10-10-10-10-10-10---13--------13-------13--------13-----|





Comments


Popular Machine Head tabs & chords
The Blood The Sweat The Tears 2 Bass Tabs
Bite The Bullet Tabs
Chrashing Around You Tabs
Days Turn Blue To Gray Tabs
Devil With The King's Card Tabs
Devil With The King's Card 1 Tabs
From This Day Tabs
Locust 1 Tabs
Now I Lay Thee Down 4 Tabs
Violate Tabs


Song lyrics



↑ Back to top | Tablatures and chords are parodies/interpretations of the original songs. You may use it for private study, scholarship, research or language learning purposes only
© 2014 AZChords.com Contact us | Privacy policy | DMCA | Add/correct tabs | Request tabs | Top 50 tabs