» » »

Machine Head, Seasons Wither Tabs (ver.1)

Artists:  A B C D E F G H I J K L M N O P Q R S T U V W X Y Z # 

Seasons Wither Tabs (ver.1)

Machine Head Tabs
 Rating:
4/5 (4 votes)
Seasons Wither lessons Tabs too difficult? Try these video lessons and learn fast
1
                Track: Seasons Wither (Machine Head)
Tunning: 6:B  5:F# 4:B  3:E  2:C# 1:G#

Riff 1
1-17-13-18-17-13----13--------|
2----------------------15-----|
3-----------------------------|
4-----------------------------|
5-----------------------------|
6 ----------------------------|

Riff 2
1------------------------------------------|
2------------------------------------------|
3------------------------------------------|
4------------------------------------------|
5------------------------------------------|
6-1-1-1-0-1-1-1-3-1-1-1-0-1-1-1-3----------|

Riff 3
1-----------------------------------|
2-----------------------------------|
3-----------------------------------|
4----------------------3-2----------|
5---3-5---3-6---3-5--------0-3-5----|
6-0-----0-----0---------------------|

Riff 4
1----------------------------------------|
2--------------------------6-5-----------|
3----5-7---5-8-----5-7---------7-5-7-----|
4-0------0-------0-----------------------|
5----------------------------------------|
6----------------------------------------|

Riff 5
1--------------------------------------------------------|
2--------------------------------------------------------|
3--------------------------------------------------------|
4--------------------------------------------3-2---------|
5---------------------------3-5---3-6---3-5------0-3-5---|
6-0-0-0-0-0-0-0-0-0------0-----0-------------------------|
pm-------------------------------------------------------|

Riff 6
1----------------------------------------------------------------------------|
2----------------------------------------------------------------------------|
3-----------------------------------------------------10-10-10-12-12-12--8---|
4-------------7-7-7---------------------7-7-7--------------------------------|
5-6-6-6-3-3-3-5-5-5--6-6-6--6-6-6-3-3-3-5-5-5---6-6-6--8--8--8-10--10-10-6---|
6-6-6-6-3-3-3--------6-6-6--6-6-6-3-3-3---------6-6-6------------------------|

Riff 7
1-----------------------------------------------------|
2-----------------------------------------------------|
3---------------------------------------8-7-12-10-----|
4-----------------------------------------------------|
5---------------------------------------6-5-10--8-----|
6-3-1-0-1-0-0-3-1-0-1-0-0-0ect------------------------|

Do all the riffs again 1's more
Then play this riff FAST!
Riff 8
1--------------------------------------------------------------------------------------------|
2--------------------------------------------------------------------------------------------|
3---------------------------------------------7-7-7-10-10-10-8-8-8-10-10-10--12-12-12-15-15--|
4--------------------------------------------------------------------------------------------|
5---------------------------------------------5-5-5--8--8-8--6-6-6--8--8--8--10-10-10-13-13--|
6-0-6-6-6-6-6-6-0-3-3-3-3-6-6-6-6-0----------------------------------------------------------|

Riff 9 over solo
1----------------------------------------------------------|
2----------------------------------------------------------|
3-12-12-12-12-12-12-10-10-8--------------------------------|
4----------------------------------------------------------|
5-10-10-10-10-10-10--8--8-6----3-5--3-6--------------------|
6-------------------------------------0--0-0-0-0-0-0-0-0-0-|    ect
                                                                pm___________|

Riff 10 (clean sound)
1---5---3---1--1-0-3-0-1-0-1----------|
2----------------------------------3--|
3-7---5---3---------------------------|
4-------------------------------------|
5-------------------------------------|
6-------------------------------------|

Riff 11
1--------------------------------------------------------------|
2--------------------------------------------------------------|
3--------------------------------------------------------------|
4--------------------------------------------------------------|Start 2 play Riff 1 over this Riff here
5-3-3-3-3-3-3-3-5-5-5-5-5-5-5-8-8-8-8-8-8-8-5-5-5-5-3-3-3-3-0--|
6-3-3-3-3-3-3-3-5-5-5-5-5-5-5-8-8-8-8-8-8-8-5-5-5-5-3-3-3-3-0--|
            
Submit corrections

comments powered by Disqus
↑ Back to top | Machine Head Tabs for Seasons Wither. Lyrics for acoustic guitar and electric guitar. 1 Tablatures and chords are parodies/interpretations of the original songs. You may use it for private study, scholarship, research or language learning purposes only