» » »

Nothing Left Tabs (ver.2)

Artists:  A B C D E F G H I J K L M N O P Q R S T U V W X Y Z # 

Nothing Left Tabs (ver.2)

Machine Head
Rating:
0/5 (0 votes)

Tabs too difficult? Try these video lessons and learn fast.
                Tuning (from low to high): B F# B E G# C# 


|------------------------------|
|------------------------------|
|-8---------8------------------|
|------------------------------|
|-6---------6------------------|
|---0---0-0---0---0-0-0-6-6-6--|
                                                                              
for the sounds after this just scape your pick down the strings                              

                                                
|---------------------------|
|---------------------------|
|---------------------------|
|---------------------------|
|---------------------------|
|---3-3-1-1-3-3-4-4-4-4-4---|


|---------------------|
|---------------------|
|---------------------|
|---------------------|
|-6---0---3---4-1-0---|
|-6---0---3---4-1-0---|
                                                               

|---------------------------------------------------|
|---------------------------------------------------|
|---------------------------------------------------|
|--0-10-12-0-10-12-0-10-12-0-10-12-13-13-13-13-13---|
|---------------------------------------------------|
|---------------------------------------------------|


|---------------------------------------------------|
|---------------------------------------------------|
|---------------------------------------------------|
|--0-10-12-0-10-12-0-10-12-0-10-12-13-13-13-13-13---|
|--0-10-12-0-10-12-0-10-12-0-10-12-13-13-13-13-13---|
|--0-10-12-0-10-12-0-10-12-0-10-12-13-13-13-13-13---|                                        

                                
      
|----------------------------------|
|----------------------------------|
|----------------------------------|
|----------------------------------|
|-8-8-8-6-6-6-8-8-8-6-6-8-9-9-9-9--|
|----------------------------------|

|---------------------------|
|---------------------------|
|---------------------------|
|---------------------------|
|---------------------------|
|---3-3-1-1-3-3-4-4-4-4-4---|
            
Tabs too difficult? Try these video lessons and learn fast.


comments powered by Disqus
↑ Back to top | Tablatures and chords are parodies/interpretations of the original songs. You may use it for private study, scholarship, research or language learning purposes only