» » »

Machine Head, Left Unfinished Tabs (ver.1)

Artists:  A B C D E F G H I J K L M N O P Q R S T U V W X Y Z # 

Left Unfinished Tabs (ver.1)

Machine Head Tabs
 Rating:
4/5 (4 votes)
Left Unfinished lessons Tabs too difficult? Try these video lessons and learn fast
1
                
Tuned down to B


Intro (not music box thing)

----------------------------------10-11-10       2X
--------------------------------------------
--------------------------------------------
--0-3-0----5-6-5----0-3-0---------------
--0-3-0----5-6-5----0-3-0---------------
--0-3-0----5-6-5----0-3-0---------------

Faster tempo
-------------------------------------------
-------------------------------------------
--------------------------------7-8-7-----
--0-3-0----5-6-5----0-3-0---7-8-7-----
--0-3-0----5-6-5----0-3-0---5-6-5-----
--0-3-0----5-6-5----0-3-0---------------

Verse :

---7—7---6----7—7—6-
-----------------------------
------------------------------
------------------------------
------------------------------
------------------------------

Pre-chorus is intro

Chorus

Guitar 1 :

-------------------------------------------3-3-3-3-3-3-3-3-3-3-5-5-5-5-5-5-5-5-5-
-0-0-0-0-0-0-0-0-0-0-0-0-0-0-0-0---3-3-3-3-3-3-3-3-3-3-5-5-5-5-5-5-5-5-5-
-0-0-0-0-0-0-0-0-0-0-0-0-0-0-0-0—1-1-1-1-1-1-1-1-1-1-3-3-3-3-3-3-3-3-3-
-0-0-0-0-0-0-0-0-0-0-0-0-0-0-0-0---------------------------------------------------

If anyone knows what the 2nd guitarist doing that would be cool.
            
Submit corrections

comments powered by Disqus
↑ Back to top | Machine Head Tabs for Left Unfinished. Lyrics for acoustic guitar and electric guitar. 1 Tablatures and chords are parodies/interpretations of the original songs. You may use it for private study, scholarship, research or language learning purposes only