>
 >
Left Unfinished

Left Unfinished Guitar Tabs

Machine Head - Left Unfinished chords, tabs, tablatures, lyrics

Guitar lessons | Add/correct | Request | Top 50 tabs Artists:  A B C D E F G H I J K L M N O P Q R S T U V W X Y Z 0-9

Left Unfinished Guitar Tabs – Machine Head

CD, Sheet music, Poster

Do you like Left Unfinished? Share with your friends now
TabsTabs v2Tabs v3

Tuned down to B


Intro (not music box thing)

----------------------------------10-11-10       2X
--------------------------------------------
--------------------------------------------
--0-3-0----5-6-5----0-3-0---------------
--0-3-0----5-6-5----0-3-0---------------
--0-3-0----5-6-5----0-3-0---------------

Faster tempo
-------------------------------------------
-------------------------------------------
--------------------------------7-8-7-----
--0-3-0----5-6-5----0-3-0---7-8-7-----
--0-3-0----5-6-5----0-3-0---5-6-5-----
--0-3-0----5-6-5----0-3-0---------------

Verse :

---77---6----776-
-----------------------------
------------------------------
------------------------------
------------------------------
------------------------------

Pre-chorus is intro

Chorus

Guitar 1 :

-------------------------------------------3-3-3-3-3-3-3-3-3-3-5-5-5-5-5-5-5-5-5-
-0-0-0-0-0-0-0-0-0-0-0-0-0-0-0-0---3-3-3-3-3-3-3-3-3-3-5-5-5-5-5-5-5-5-5-
-0-0-0-0-0-0-0-0-0-0-0-0-0-0-0-01-1-1-1-1-1-1-1-1-1-3-3-3-3-3-3-3-3-3-
-0-0-0-0-0-0-0-0-0-0-0-0-0-0-0-0---------------------------------------------------

If anyone knows what the 2nd guitarist doing that would be cool.





Comments


Popular Machine Head tabs & chords
The Blood Sweat Tears Bass Tabs
Blood For Blood Tabs
Davidian Tabs
Davidian 2 Tabs
Machine Head - Desire To Fire Tabs
Nothing Left 2 Tabs
Seasons Wither 2 Tabs
Silver Tabs
White-Knuckle Blackout! Tabs
Who We Are Tabs


Song lyrics



↑ Back to top | Tablatures and chords are parodies/interpretations of the original songs. You may use it for private study, scholarship, research or language learning purposes only
© 2014 AZChords.com Contact us | Privacy policy | DMCA | Add/correct tabs | Request tabs | Top 50 tabs