» » »

Death Church Tabs (ver.1)

Artists:  A B C D E F G H I J K L M N O P Q R S T U V W X Y Z # 

Death Church Tabs (ver.1)

Machine Head
Rating:
0/5 (0 votes)

Hard to play? Try these video lessons and learn fast.
                Death Church  
------------ 
 
As performed by Machine Head on "Burn My Eyes"  
LP. 
 
(Slipknot - 3DBlasphemy -  
 
I was bored so I decided to tab this... 
 
It's an  
easy song to play when compared to other MH tracks such as "Old" and  
 
"Struck A Nerve". I didn't tab the solo cuz a) I can't figure it out w/out  
a sampler 
and b) its on E scale and it's fairly simple to improvise your  
own. 
 
 
Tuning: 1 whole step down (Normally it would be that plus Drop D but  
not in this one). 
 
 
Intro (made up of these 3 - figure out how many times to  
play each  
urself). 
 
F|-12-12-12--12-12-12---9-8-9-8-9-8-9-10--9-8-9-8-12-12-12-12-| 
C|------------------------------------------------------------| 
G|------------------------------------------------------------| 
D|------------------------------------------------------------| 
 
Before  
the  
Verse 
 
C|-5-2-5------------------------------------------------------| 
G|-5-2-5------------------------------------------------------| 
D|-3-0-3------------------------------------------------------| 
pm  
   - 
 
 
Main Riff (main  
part) 
 
C|---3-----3----------3----------3----------------------------| 
G|-2-1-2-2-1-2--2-2-2-1-2--2-2-2-1-2-2--2---------------------| 
D|-0---0-0---0--0-0-0---0--0-0-0---0-0--0---------------------| 
pm  
     - -                              - 
 
Main Riff (ending 1 - ending  
2) 
 
C|--------------3~--|-----------------------------------------| 
G|-1--0-1h2p1h2-----|-----------------------------------------| 
D|--0---------------|----0-1-3-4-1-3--------------------------| 
 
Verse  
Riff (same endings as the main  
riff) 
 
C|---3-----3--------------------------------------------------| 
G|-2-1-2-2-1-2--2-2-2-2-2-2-----------------------------------| 
D|-0---0-0---0--0-0-0-0-0-0-----------------------------------| 
pm  
     - -      - - - - - -  
 
 
Chorus  
(Rhythm) 
 
C|-2--3-3-3--2--3-3-3--2--3-3-3--5--2--3-3-3--2--3-3-3--------| 
G|-2--3-3-3--2--3-3-3--2--3-3-3--5--2--3-3-3--2--3-3-3--------| 
D|-0--1-1-1--0--1-1-1--0--1-1-1--3--0--1-1-1--0--1-1-1--------|  
   
pm    - - -     - - -     - - -        - - -     - - -     
 
 
C|-2--3-3-3--5-2-5-| 
G|-2--3-3-3--5-2-5-| 
D|-0--1-1-1--3-0-3-| 
pm    - - -  
      
 
Chorus  
(Lead) 
 
F|-9-8-9-8-9-8-9-10-9-8-9-8-9-8-9-10-9-8-9-8-9-8-9-10-12-9-12-| 
C|------------------------------------------------------------| 
G|------------------------------------------------------------| 
D|------------------------------------------------------------| 
 
F|-12-12-12--9-8-9-8-9-10--etc--------------------------------| 
C|------------------------------------------------------------| 
G|------------------------------------------------------------| 
D|------------------------------------------------------------| 
 
Thats  
it really... The rest are riffs which are slight variations of 
the main, but  
thats easy. Play the main riff over the solo. 
 
Send corrections, comments  
            
Hard to play? Try these video lessons and learn fast. | Correct




comments powered by Disqus
↑ Back to top | Tablatures and chords are parodies/interpretations of the original songs. You may use it for private study, scholarship, research or language learning purposes only