» » »

Machine Head, Days Turn Blue To Grey Tabs (ver.2)

Artists:  A B C D E F G H I J K L M N O P Q R S T U V W X Y Z # 

Days Turn Blue To Grey Tabs (ver.2)

Machine Head Tabs
Rating:
0/5 (0 votes)
Days Turn Blue To Grey lessons Tabs too difficult? Try these video lessons and learn fast
                Days turn blue to grey

Intro:
-----------------------       
-----------------------
-----------------------
-----------------------          
-----------------------
--5-7-5-7-5-7-5-8—

Chorus:
-------------------------
-------------------------
-------------------------
--5-7-5-7-5-7-5-8--
--5-7-5-7-5-7-5-8--
--5-7-5-7-5-7-5-8--

Verse:

-4---4-4-7-7----5-5-5---7-7-7--4---4-4-7-7--------------------------------------------------------
-2---2-2-5-5----5-5-5---7-7-7 -2---2-2-5-5---5-5-5---7-7-7--------------------------------------
 ------------------5-5-5---7-7-7------------------5-5-5---7-7-7------5-5-5-5-5-6-6-6-6-6-6-6--

Middle:

------7-5-7-5-8-7-5—
-------------------------
-------------------------
-------------------------
-------------------------
-------------------------

Wah

If anyone knows what the other guitar is doing that would be cool.
            
Submit corrections

comments powered by Disqus
↑ Back to top | Machine Head Tabs for Days Turn Blue To Grey. Lyrics for acoustic guitar and electric guitar. Tablatures and chords are parodies/interpretations of the original songs. You may use it for private study, scholarship, research or language learning purposes only