» » »

Days Turn Blue To Gray Tabs (ver.3)

Artists:  A B C D E F G H I J K L M N O P Q R S T U V W X Y Z # 

Days Turn Blue To Gray Tabs (ver.3)

Machine Head
Rating:
0/5 (0 votes)

Tabs too difficult? Try these video lessons and learn fast.
                Intro
C#|-------------------------------------------------------------------------|
G#|-------------------------------------------------------------------------|
E |------------------------------------------------------------------333-222|
B |0-2-0-2-2s3-0-5^--0-2-0-2-2s3-0-5^--0-2-0-2-2s3-0-5^--0-2-0-2-0-0--------|
F#|-------------------------------------------------------------------------|
B |-------------------------------------------------------------------------|



Chorus / Intro
C#|--------------------------|
G#|--------------------------|
E |-------------9/10----12^--|
B |--0-2--0-2-0--/---0-------|x3 
F#|--0-2--0-2-0-7/8--0--10^--|
B |--0-2--0-2-0------0-------|
 
C#|-----------------------------| 
G#|-----------------------------|
E |-----------------------------|
B |--0-2--0-2-------8-8-8-7-7-7-|
F#|--0-2--0-2-0-0---8-8-8-7-7-7-|
B |--0-2--0-2-0-0---8-8-8-7-7-7-|

C#|--------------------------|
G#|--------------------------|
E |-------------9/10----12^--|
B |--0-2--0-2-0--/---0-------|x3 
F#|--0-2--0-2-0-7/8--0--10^--|
B |--0-2--0-2-0------0-------|
 
C#|-----------------------------| 
G#|-----------------------------|
E |-----------------------------|
B |--000--000-------8-8-8-7-7-7-|
F#|--000--000-0-0---8-8-8-7-7-7-|
B |--000--000-0-0---8-8-8-7-7-7-|

C#|--------------------------|
G#|--------------------------|
E |-------------9/10----12^--|
B |--0-2--0-2-0--/---0-------|x3 
F#|--0-2--0-2-0-7/8--0--10^--|
B |--0-2--0-2-0------0-------|
 
C#|-----------------------------| 
G#|-----------------------------|
E |-----------------------------|
B |--0-2--0-2-------8-8-8-7-7-7-|
F#|--0-2--0-2-0-0---8-8-8-7-7-7-|
B |--0-2--0-2-0-0---8-8-8-7-7-7-|



Verse - "Oh, thou have fathered..."
C#|--------------------------------------------------| 
G#|--------------------------------------------------|
E |----4-S--7------------4-S-------------------------|
B |----4-S--7---5-S--7---4-S--0----5--4--------------|
F#|----2-S--5---5-S--7---2-S--0----5--4--------------|
B |-------------5-S--7--------0----5--4---------x2---| 



Pre-Chorus - "Self-Destruction, makes him function..."
(*Palm mute* slowly begins to let off)
C#|-----------------------------------------------| 
G#|----10-10-10-10-10-10---11-11-11-11---13-13----|
E |-----------------------------------------------|
B |-----7--7--7--7--7--7----8--8--8--8---10-10----|
F#|-----------------------------------------------|
B |---------------------------------------------x4|



Chorus - "Days Turn Blue To Gray..." 1:48
C#|--------------------------|
G#|--------------------------|
E |-------------9/10----12^--|
B |--0-2--0-2-0--/---0-------|x3 
F#|--0-2--0-2-0-7/8--0--10^--|
B |--0-2--0-2-0------0-------|
 
C#|-----------------------------| 
G#|-----------------------------|
E |-----------------------------|
B |--0-2--0-2-------8-8-8-7-7-7-|
F#|--0-2--0-2-0-0---8-8-8-7-7-7-|
B |--0-2--0-2-0-0---8-8-8-7-7-7-|

C#|--------------------------|
G#|--------------------------|
E |-------------9/10----12^--|
B |--0-2--0-2-0--/---0-------|x3 
F#|--0-2--0-2-0-7/8--0--10^--|
B |--0-2--0-2-0------0-------|
 
C#|-----------------------------| 
G#|-----------------------------|
E |-----------------------------|
B |--0-2--0-2-------8-8-8-7-7-7-|
F#|--0-2--0-2-0-0---8-8-8-7-7-7-|
B |--0-2--0-2-0-0---8-8-8-7-7-7-|



Verse - "Oh, 17 when, family begin..."
C#|--------------------------------------------------| 
G#|--------------------------------------------------|
E |----4-S--7------------4-S-------------------------|
B |----4-S--7---5-S--7---4-S--0----5--4--------------|
F#|----2-S--5---5-S--7---2-S--0----5--4--------------|
B |-------------5-S--7--------0----5--4---------x2---| 



Pre-Chorus
C#|-----------------------------------------------| 
G#|----10-10-10-10-10-10---11-11-11-11---13-13----|
E |-----------------------------------------------|
B |-----7--7--7--7--7--7----8--8--8--8---10-10----|
F#|-----------------------------------------------|
B |---------------------------------------------x4|



Chorus - "Days Turn Blue To Gray..."
C#|--------------------------|
G#|--------------------------|
E |-------------9/10----12^--|
B |--0-2--0-2-0--/---0-------|x3 
F#|--0-2--0-2-0-7/8--0--10^--|
B |--0-2--0-2-0------0-------|
 
C#|-----------------------------| 
G#|-----------------------------|
E |-----------------------------|
B |--0-2--0-2-------8-8-8-7-7-7-|
F#|--0-2--0-2-0-0---8-8-8-7-7-7-|
B |--0-2--0-2-0-0---8-8-8-7-7-7-|

C#|--------------------------|
G#|--------------------------|
E |-------------9/10----12^--|
B |--0-2--0-2-0--/---0-------|x3 
F#|--0-2--0-2-0-7/8--0--10^--|
B |--0-2--0-2-0------0-------|
 
C#|-----------------------------| 
G#|-----------------------------|
E |-----------------------------|
B |--0-2--0-2-------8-8-8-7-7-7-|
F#|--0-2--0-2-0-0---8-8-8-7-7-7-|
B |--0-2--0-2-0-0---8-8-8-7-7-7-|


Pre-Breakdown - 2:48 - "Lest I taste..."
C#|-------------------------------------| 
G#|-------------------------------------|
E |--10-10------------------------------|
B |----------------------8-8-8--7-7-7---|
F#|---8--8---0-0-0---000-8-8-8--7-7-7---|
B |----------0-0-0---000 8-8-8--7-7-7-x3|

    4 Beats
C#|-------------------------------------------------------------------------|
G#|--------1--------------------2-----------------etc-----------etc---------|
E |[10-10-10-10-10-10][10-10-10-10-10-10]10-10-10-10-10-10-10-10-10-10-10-10|
B |[-----------------][-----------------]-----------------------------------|
F#|[-8--8--8--8--8--8][-8--8--8--8--8--8]-8--8--8--8--8--8--8--8--8--8--8--8|
B |-------------------------------------------------------------------------|

C#|-------------------------------------------------------------| 
G#|-------------------------------------------------------------|
E |-------------------------------------------------------------|
B |-------------------------------------------------8-8-8-7-7-7-|
F#|-0-0-0-0-0-0-0-0-0-0-0-0-0-0-0-0-0-0-0-0-0-0-0-0-8-8-8-7-7-7-|
B |-0-0-0-0-0-0-0-0-0-0-0-0-0-0-0-0-0-0-0-0-0-0-0-0-8-8-8-7-7-7-|
          * * *       * * *       * * *       * * *


Interlude
C#|-----------------------------------------| 
G#|-----------------------------------------|
E |--------------12-11----------------12-11-|
B |--14-12-14-12-------12-14-12-14-12-------|
F#|-----------------------------------------|
B |----------------------Repeat-as-necessary|

   Harmonized version
C#|-----------------------------------------| 
G#|-----------------------------------------|
E |--------------16-14----------------16-14-|
B |--17-16-17-16-------16-17-16-17-16-------|
F#|-----------------------------------------|
B |-----------------------------------------|

C#|--------------------------------------------| 
G#|--------------------------------------------|
E |--------------------------------------------|
B |--------------------------------------------|
F#|--------------------------------------------|
B |--14-12-14-12-17-16-12-14-12-14-12-17-14----|


Heavy
Father - Mother - F***er - No Closure
C#|----------------------------| 
G#|----------------------------|
E |----------------------------|
B |--2---0---5-3--2--0--5-3----|
F#|--2---0---5-3--2--0--5-3----|
B |--2---0---5-3--2--0--5-3--x4|


5:01
C#|------------------------------| 
G#|------------------------------|
E |------------------------------|
B |------------------------------|
F#|------------------------------|
B |--2-0-2-0-5-3-0-2-0-2-0-5-3-0-|



C#|--------------------------------------------------------------| 
G#|------------Scratches--------------------Scratches------------|
E |--Scratches----------------Scratches--------------------------|
B |--------------------------------------------------------------|
F#|----0-0---------0------0-0-------0------0-0-----0------0-0----|
B |----0-0---------0------0-0-------0------0-0-----0------0-0----|

Submitted by js81221. Please rate, enjoy, and long live Machine Head.
            
Tabs too difficult? Try these video lessons and learn fast.


comments powered by Disqus
↑ Back to top | Tablatures and chords are parodies/interpretations of the original songs. You may use it for private study, scholarship, research or language learning purposes only