>
 >
Davidian

Davidian Guitar Tabs

Machine Head - Davidian chords, tabs, tablatures, lyrics

Guitar lessons | Add/correct | Request | Top 50 tabs Artists:  A B C D E F G H I J K L M N O P Q R S T U V W X Y Z 0-9

Davidian Guitar Tabs – Machine Head

CD, Sheet music, Poster

Do you like Davidian? Share with your friends now
Bass TabsBass Tabs v2TabsTabs v2Tabs v3
"Davidian"  - MACHINE HEAD                                                                              
  From the Album "Burn my Eyes"


Note - Timing is not perfect on this (no shit!), but that wasn't my intention.
    This tab is _not_ perfect and I am still working on the rest of the song, but
    it sounds *fairly* close to me :-) If you can come up with something better,
    please send it to me at my e-mail address at Uni.

Intro :

   Gtr 1 (Robb)         Repeat x2
D-|-------------------||-------------------------|-------------------------||
A-|-------------------||*------------------------|------------------------*||
F-|-------------------||-------------------------|-------------------------||
C-|-------------------||-------------------------|-------------------------||
G-|-5--------5-5------||*6/8/9-5--------5-5------|-6/9\8-5---------5-5----*||
D-|-3--------3-3------||-4/6/7-3--------3-3------|-4/7\6-3---------3-3-----||
  |                   ||                         |                         ||
  |Gtr 2 (Logan)      ||                         |                         ||                          
D-|-------------------||-------------------------|-------------------------||
A-|-------------------||*------------------------|------------------------*||
F-|---7-----------7---||---------7-----------7---|----------7----------7---||
C-|----7-6~--------7--||----------7-6---------7--|-----------7-6--------7--||
G-|-------------------||*-----------4------------|-------------4----------*||
D-|-------------------||-------------------------|-------------------------||

                                  Repeat loads
D-|-----------------------------||-------------------------|-------------------------||
A-|-----------------------------||*------------------------|------------------------*||
F-|-----------------------------||-------------------------|-------------------------||
C-|-----------------------------||-------------------------|-------------------------||
G-|-6/8/9-5-5-------6/9\8-5-----||*6---5-5------6/8/9-5----|-6---5-5------6/9\8-5---*||
D-|-4/6/7-3-3-------4/7\6-3-----||-4---3-3------4/6/7-3----|-4---3-3------4/7\6-3----||
  |                             ||                         |                         ||
  |                             ||                         |                         ||
D-|-----------------------------||-------------------------|-------------------------||
A-|-----------------------------||*------------------------|------------------------*||
F-|------------7------------7---||----------7-----------7--|----------7-----------7--||
C-|-------------7-6----------7--||-----------7-----------7-|-----------7-----------7-||
G-|---------------4-------------||*------------------------|------------------------*||
D-|-----------------------------||-------------------------|-------------------------||


D-|-----------------------------|-----------------------------|------------|
A-|-----------------------------|-----------------------------|------------|
F-|-----------------------------|-----------------------------|------------|
C-|-----------------------------|-----------------------------|------------|
G-|-6/8/9-5-5------6/8/9-5-5----|-6/9\7-5---------------------|------------|
D-|-4/8/9-3-3------4/8/9-3-3----|-4/7\6-3---------------------|------------|
  |                             |                             |            |
  |                             |                             |            |
D-|-----------------------------|-----------------------------|------------|
A-|-----------------------------|-----------------------------|------------|
F-|------------7-------------7--|-----------------------------|------------|
C-|-------------7-------------7-|-----------------------------|------------|
G-|-----------------------------|-----------------------------|------------|
D-|-----------------------------|-----------------------------|------------|


   Main Riff (played through most of song)
D-|-----------------------------|
A-|-----------------------------|
F-|-----------------------------|
C-|-----------------------------|
G-|-3--3---33--3--33333-5-4-2-5-|
D-|-1--1---11--1--11111-5-4-2-5-|
           x      xxxxx     x                                                    

Key: 

x - Palm mute this note/chord
~ - Vibrato (oooerr missus!)
/ - Slide UP to the next note/chord
\ - Slide DOWN to the next note/chord

Cry for help

If anybody could please send me tabs for the following stuff I would be most grateful - I
don't mindwhat version they are or how comlpete, any contribution would be greatly appreciated.
Thanx M8s!!!! ;-)

Biohazard : Anything off "Urban Discipline" (except Punishment).
Corrosion Of Conformity : Anything off "Deliverance" - especially the track
                          "Clean My Wounds" (Its fuckin' excellent!)
Deicide : Anything off "Once Upon The Cross" (killer album)
Dog Eat Dog : Anything off the "All Boro Kings : Special Edition" CD.
Downset : Anything off the "Downset" album.
Faith No More : Anyhting from "The Real Thing", "Angel Dust" and especially 
                stuff from "King For A Day ... Fool For A Lifetime".
Machine Head : Anything from "Burn My Eyes" (especially your
               own versions of Davidian and Old).
Pantera : Anything off "Far Beyond Driven" but not "Vulgar Display of
          Power" -I've got loads off that already :-)
Sepultura : Anything off "Arise", "Bestial Devastation", 
            "Beneath The Remains" or "Morbid Visions".
Therapy ? : The song "Knives" off "Troublegum"
Ugly Kid Joe : Anything off "Ugly As They Wanna Be", "America's Least Wanted" or
               "Menace To Sobriety".
White Zombie : Anything off "Astro Creep : 2000" - especially the two 
               "Electric Head" songs and "Super-Charger Heaven"


--Part9511021304A--





Comments


Popular Machine Head tabs & chords
Blood Of The Zodiac Bass Tabs
Days Turn Blue To Gray Bass Tabs
Take My Scars 2 Bass Tabs
Imperium Drum Tabs
A Thousend Lies Tabs
Aesthetics Of Hate Tabs
Exhale The Vile 1 Tabs
Machine Head - Desire To Fire Tabs
Machine Mess Tabs
My Misery Tabs


Song lyrics



↑ Back to top | Tablatures and chords are parodies/interpretations of the original songs. You may use it for private study, scholarship, research or language learning purposes only
© 2014 AZChords.com Contact us | Privacy policy | DMCA | Add/correct tabs | Request tabs | Top 50 tabs