» » »

M2m, Don't Tabs (ver.2)

Artists:  A B C D E F G H I J K L M N O P Q R S T U V W X Y Z # 

Don't Tabs (ver.2)

M2m Tabs
 Rating:
4/5 (4 votes)
Don't lessons Tabs too difficult? Try these video lessons and learn fast
                      M2M, "The Big Room"

(simplified name of chords)

E      x79900
F#     x91100
A      x12 14 14 0 0
C#     x46600
B      x22400
Aadd2  x02200
Eopen  022100

Intro:

  Aadd2
e------0--------------0---------|
b--0-----0----0---0------0------|
g----2------2-------2-----------|
d-------------------------------|
a--0--------------0-------------|
E-------------------------------|

1st verse riff:
  E      F#         A
e--0------0---0----------0----|
b-----------0----------0------|
g-----9-----------------------|
d-----------------------------|
a--7------9------9--12--------|
E-----------------------------|

  E          C#       B
e-------0----------0--------0----|
b-----0----------0--------0------|
g--------------------------------|
d--------------------------------|
a--7-------6--4--------2-------2-|
E--------------------------------|

  Aadd2
e--------0----0------|
b------0-------------|
g----2------2--------|
d--------------------|
a--0-----------------|
E--------------------|

Repeat except the last 2 notes 
then play this:

e------0------------0-------|
b----0------------0---------|
g--2------2-----------------|
d---------------------------|
a---------------------------|
E---------------------------|

solo:

e------------------------------|
b-----------------12-----------|
g-9-9/(11)-11--14-----13--11---|
d------------------------------|
a------------------------------|
E------------------------------|

e------------------------------|
b------------------------------|
g--9-9/(11)-11--8-8/(9)--9-----|
d------------------------------|
a------------------------------|
E------------------------------|
  repeat

Yah, I know u already know this
but, there's somebody who requested
me to tab this.

note: all of my M2M tabs r Asian Version
            
Submit corrections

comments powered by Disqus
↑ Back to top | M2m Tabs for Don't. Lyrics for acoustic guitar and electric guitar. Tablatures and chords are parodies/interpretations of the original songs. You may use it for private study, scholarship, research or language learning purposes only