» » »

They Day You Went Away Tabs (ver.1)

Artists:  A B C D E F G H I J K L M N O P Q R S T U V W X Y Z # 

They Day You Went Away Tabs (ver.1)

M2m
Rating:
0/5 (0 votes)

Hard to play? Try these video lessons and learn fast.
                Chords:
VERSE: Bm, Bsus, Bm, A, Asus, A, G6, A, F#m (repeat) 
PRE CHORUS: D, C#m, Bm, A, G6, A
CHORUS: D, C#m, Bm, A, G6, A, D (repeat)

Verse (tabbed):
     Bm          Bsus    Bm      A             Asus    A
E---------------|------|-------|-------------|-------|-------|
B----3----------|-5----|-3-----|-2-----------|-3-----|-2-----|
G----------4----|------|-------|-------2-----|-------|-------|
D-------4-----4-|----4-|----4--|----2-----2--|----2--|----2--|
A---------------|------|-------|-------------|-------|-------|
E---------------|------|-------|-------------|-------|-------|
    G6                        A    G6     F#m
E---------------------------|----|------|------|
B---0-----------0-----------|-2--|---0--|------|
G---------0-----------0-----|----|--0---|--3---|
D------0-----0-----0-----0--|----|------|-4----|
A---------------------------|----|------|------|
E---------------------------|----|------|------|

Chords:
A    X 0 2 2 2 0
Asus X 0 2 2 3 0
Bm   X 2 4 4 3 2
Bsus X 2 4 4 5 2
C#m  X 4 6 6 5 4
D    X 5 7 7 7 5
F#m  2 4 4 3 2 2
G6   3 2 0 0 0 0

Lyrics:
Well I wonder
Could it be
When I was dreaming 'bout you baby
You were dreamin' of me
Call me crazy
Call me blind
To still be suffering is stupid after all of this time

Did I lose my love to someone better?
And does she love you like I do, I do
You know I really really do

(Chorus)
Well hey
So much I need to say
Been lonely since the day
The day you went away
So sad but true 
For me theres only you
Been cryin' since the day
The day you went away

I remember
September 22nd
Sunday 25 after nine
In the doorway
With your case
No longer shouting at each other 
There were tears on our faces
And we were letting go of something special
Something we'll never have again
I know
I guess I really really know

(Chorus)

Why do we never know what we've got til its gone
How could I carry on
The day you went away
'Cuz I've been missin' you so much I have to say
Been crying' since the day
The day you went away...
            
Hard to play? Try these video lessons and learn fast. | Correct




comments powered by Disqus
↑ Back to top | Tablatures and chords are parodies/interpretations of the original songs. You may use it for private study, scholarship, research or language learning purposes only