» » »

The Ballad Of Curtis Loew Tabs (ver.1)

Artists:  A B C D E F G H I J K L M N O P Q R S T U V W X Y Z # 

The Ballad Of Curtis Loew Tabs (ver.1)

Lynyrd Skynyrd
Rating:
0/5 (0 votes)

Hard to play? Try these video lessons and learn fast.
                This is once again another 100% correct tab.

INTRO
------13/--13/11--9-9/11~~~~------------9----/13--9/13~~~~~~~~~~~~-
---------------------------------9--11-----9-----------------------

------------------------/6---5/4--------------------------------------
-----------------------------------7---------------/4----0---0-0-----
---7/9----11------------------------------------------------------0-2-

------------------------------------7/6---4~~~~~~~--------------------
-----------------------------------------------------------/6---6/4--2
---4/2----0-----------------------------------------------------------

---2~~~~~~~~~~~~~~~~~-------------------------------------------------
---------------------------------------4---2----------------/4-------2
----------------------------------------------3/-----0----------------

--------------------------------------------------------------0-----0-
------------------------------------------------/11-------------2-2--2
---0-------------------7/------------5/4----2-------------------------
---------3/----0------------------------------------------------------

This is about as far as it goes. This is one of the greatest songs, 
hope it helps you out alot.
Davy S.
            
Hard to play? Try these video lessons and learn fast. | Correct




comments powered by Disqus
↑ Back to top | Tablatures and chords are parodies/interpretations of the original songs. You may use it for private study, scholarship, research or language learning purposes only